Ads

The Unknown Castle (Dragon Quest IV) Guitar Tab

Submitted: Apr 17, 2012 by musenji (Last updated: Apr 17, 2012)

5
Average: 5 (1 vote)
Download | Listen
Game: Dragon Quest IV
Composer(s): Koichi Sugiyama
Style: Fingerstyle, Trill
Series: Dragon Quest

This song is also called Zenithia

Click here for a video example.

AutoScroll: Slow | Medium | Fast
Dragon Warrior IV
The Unknown Castle (Zenithia)
composed by Koichi Sugiyama
arranged by Ben Hoffman (musenji), tabbed 3/13/2012


3/4 time, standard tuning

80-90 bpm


||-------------|-------------|-0-----------|-------------|
||-------------|-1-------3---|---------1---|-0-------0---|
||-0-----------|-0-------4---|-0---0---0---|-----3-------|
||-2-----------|-2-------5---|-----2-------|---------0---|
||-3-----------|-------------|-3-----------|-----4-------|
||-------------|-------------|-------------|-4-----------|


|---1-0-------|---------0---|-------------|-------------|
|-1---1-3-1-0-|-1-0-1-3---1-|-3-----------|-----0-------|
|-----2---2---|-2---1---0---|-4---0---4---|-0---0---0---|
|---------2---|-4-----------|---------0---|-------------|
|-0-----------|-----3---3---|-----2-------|---------2---|
|-------------|-------------|-3-----------|-1-----------|


|-----------0-|-3-6-5-3-1-0-|-1-----------|-------------|
|---1-0-1-3---|-----2---2---|---------3---|---------3---|
|-----0---0---|-6-------0---|-----2---2---|-----2---2---|
|---------2---|-----2-------|-0---3-------|-3---3-------|
|-3---3-------|-0-----------|-------------|-3-----------|
|-0-----------|-------------|-------------|-------------|
                                
                                                ~
|-----------1-|-0-1-3-5-7-8-|-5--13--10---|-8---7-----5-7-|
|-------3-3---|-1---1---5---|-6--10-------|-6-------------|
|---0-0---0---|-------------|-------------|---------------|
|-0---0-------|-----2---5---|-7--10-------|-5-------6-----|
|-2-------2---|-3-----------|-------------|---------------|
|-----3-------|-------------|-------------|---------------|


|-8-------4---|-5---7---8---|-7-------3---|-------------|
|-5-----------|---------5---|-3-------0---|-------------|
|---------4---|-5---7-------|-0-----------|-----0-------|
|-7-----------|---------4---|-------------|-------------|
|---------7---|-------------|-------------|-----2-------|
|-------------|-5-----------|-------------|-------------|


|-------------|-----0---1---|-0-----------|-------------|
|-3-------2---|-3-----------|---------1---|-------------|
|-------------|-----0---2---|-0-----------|-------------|
|-3-------2---|-3-----------|---------2---|-----2-------|
|-5-------0---|-5-----------|-3-----------|-------------|
|-------------|---------3---|-------------|-----3-------|

 (A)

|-5-----------|-----------0--------7-8-10-|
|-------7-7---|-----0-1-3---7-9-10--------|
|---5-5-------|-1-2-----------------------|
|-----------7-|---------------------------|
|-6-----------|---------------------------|
|-------------|-0-------------------------|

|-12-----------|-------------0-----5-7-8-|
|--------------|-------0-1-3---6-8-------|
|----0-0-3-3---|---0-2-------------------|
|------------2-|-3-----------------------|
|----------4---|-5-----------------------|
|--9-----------|-------------------------|

 (1.) 
                                   ~
|-10---8---7---|-5-3-1-0-----|---------------|-0-----------|
|--------------|---------3-1-|-1---0-----1-3-|-----0-------|
|--------------|---------0---|---------------|-------------|
|------6---3---|-2-----------|-3-------------|-2-------2---|
|--8-----------|-3-----------|---------------|-------------|
|--7-----------|---------1---|-3-------3-----|-4-----------|

                                  ~                    (to A)
|-6---5---3---|-3-2-2-0-----|---------------|-----3---8---|
|-------------|-1-------3-1-|-1---0-------0-|-1-----------|
|-6-----------|-------------|-----------2---|-0-----------|
|-------------|-0-----------|-0-------------|-------------|
|-0-----------|---------0---|---------------|-------------|
|-------------|-------------|-3-------1-----|-0-----------|

 (2.)
                                   ~
|-10---8---7---|-5-3-1-0-----|-------------|-------------||
|--------------|---------3-1-|-1---0-----1-|-1-----------||
|--------------|---------2---|-------------|-------------||
|------6---3---|-2-----------|-3-------3---|-2-----------||
|--8-----------|-3-----------|-------------|-3-----------||
|--7-----------|---------1---|-3-------3---|-----3---0---||
Login or Register to remove this ad.