Ads

Taloon's Theme (Dragon Quest IV) Bass/Guitar Tab

Submitted: Mar 14, 2010 by musenji (Last updated: Apr 05, 2010)

5
Average: 5 (1 vote)
Download | Listen
Game: Dragon Quest IV
Composer(s): Koichi Sugiyama
Style: 2 or more instruments, Transcription
Series: Dragon Quest

AutoScroll: Slow | Medium | Fast
Dragon Warrior IV
Taloon's Theme
composed by Koichi Sugiyama
tabbed by musenji, 2006, 2010



****BASS/MELODY****

2^ means a fast 2h3p2--a grace note.

Standard tuning for a bass, or for the bottom four strings of a guitar.


|----------------5---4-2---------|--------------------------------|
|----2-3-5---------------5---3---|2-------------------------------|
|3-5---------3-------------------|----5-3-2^----3-3---------------|
|--------------------------------|--------------------------------|


|----------------7---5-4---------|----------------4---------------|
|----4-5-7---------------7---5---|4---4-5-7-----------------------|
|5-7---------5-------------------|------------5-------------------|
|--------------------------------|--------------------------------|


|5---3---------------------------|5---4-2-------------------------|
|------6-5---3-------------------|--------5---3---2---3---4---5---|
|----------------6-4-3-------6---|--------------------------------|
|----------------------6-4-------|--------------------------------|


|----------------5---4-3---2-----|--------------------------------|
|----2-3-5---------------5---3-5-|2^------5-----------------------|
|3-5---------3-------------------|----5-3---------3---------------|
|--------------------------------|------------3-------------------|


|9-------------------------------|-------(9)----------------------|
|------------------------6-------|--------------------------------|
|--------------------7-9-----7---|0-------------------0-2-4---0---|
|--------------------------------|--------------------------------|


|--------------------------------|--------------------------------|
|--------------------------------|2---------------0-2-0-2-0-------|
|0---------------1-------2-------|--------0-----------------3-2-0-|
|--------------------------------|--------------------------------|


(The note in parentheses, I think, is not actually part of the proper
"bass" line/melody, but I believe it does use the bass channel, so I've
included it.)





****ACCOMPANIMENT****

Standard tuning.  There are a number of places where alternate left-hand fingerings
can be used; find what works best for you.



|------------------------5-5-----5-5-|--------------------------------------------|
|------8-8-------8-8-6-6-----6-6-----|------8-8-------8--8--------8--8--------8-8-|
|9--9--9-9-9--9--9-9-----5-5-----5-5-|9--9--9-9-10-10-10-10-10-10-10-10-9--9--9-9-|
|10-10-----10-10-----7-7-----7-7-----|10-10-----12-12-------12-12-------10-10-----|
|------------------------------------|--------------------------------------------|
|------------------------------------|--------------------------------------------|


|--------------------------------------------|--------------------------------|
|------10-10-------10-10-------8-8-----------|----3-3-------------6-6-----6-6-|
|11-11-11-11-11-11-11-11-10-10-7-7-7-7-10-10-|5-5-5-5-5-5-7-7-7-7-7-7-7-7-7-7-|
|12-12-------10-10-------9--9------9-9-9--9--|7-7-----4-4-4-4-5-5-----5-5-----|
|--------------------------------------------|--------------------------------|
|--------------------------------------------|--------------------------------|


|--------------------------------|--------------------------------|
|--------------------------------|--------------------------------|
|8-------6-------6-------5-------|--------5-------5---5---6---7---|
|6-------6-------5-------6-------|5-------7-------5---7-----------|
|--------------------------------|7-----------------------7---8---|
|--------------------------------|--------------------------------|


|------------------------5-5-----5-5-|----------------------------------------|
|------8-8-------8-8-6-6-----6-6-----|------8-8-6-6-----------8--8--------8-8-|
|9--9--9-9-9--9--9-9-----5-5-----5-5-|9-9---9-9-7-7-7-7-10-10-10-10-9--9--9-9-|
|10-10-----10-10-----7-7-----7-7-----|10-10---------9-9-12-12-------10-10-----|
|------------------------------------|----------------------------------------|
|------------------------------------|----------------------------------------|


|7-8--7-8--7---8----10---------------|9--10-9--10-9----10---12---------------|
|9-10-9-10-9---10---12---------------|10-12-10-12-10---12---14---------------|
|------------------------------------|---------------------------------------|
|------------------------------------|---------------------------------------|
|------------------------------------|---------------------------------------|
|------------------------------------|---------------------------------------|


|2-3-2-3-2---3-5---5---5-3---3---|--------------------------------|
|1-0-1-0-1---0-------------------|2-2-2---3-3---3---------0-------|
|--------------5---5---5-4---4---|0-0-0---------------------------|
|--------------------------------|--------4-4---3-----------------|
|--------------------------------|--------------------------------|
|--------------------------------|--------------------------------|
Login or Register to remove this ad.