Ads

Mysterious Shrine (Dragon Quest IV) Guitar Tab

Submitted: Oct 21, 2011 by diralark

5
Average: 5 (1 vote)
Download | Listen
Game: Dragon Quest IV
Composer(s): Koichi Sugiyama
Style: Arrangement, Fingerstyle
Series: Dragon Quest

AutoScroll: Slow | Medium | Fast
                            Mysterious Shrine     from Dragon Quest IV
                        
  Music by Koichi Sugiyama >> Guitar solo tab by Diralark

symphonic suite version : http://www.youtube.com/watch?v=yrPYR9tsU7I#t=2m48s

Guitar, Tempo 70, let ring, Capo 0 at beginning then 5th bar (to match with the symphonic suite version)


    SEGNO                             ^                        ^            ^                      
     W                     Q    E  E  Q    E  E     Q    E  E  Q    Q       Q    E  E  Q    E  E   
E||-------------------||--------------0----------|-------------0---------|------------------------|
B||-------------------||---0----1--3-------3--1--|--0----1--3-------0----|--3----1--0----------0--|
G||-------------------||*------------------------|--0----------2---------|-------------2----1-----|
D||-------------------||*--2----------3----------|--2----------3---------|--3----------2----------|
A||-------------------||---3----------5----------|-----------------------|--2----------2----------|
E||-------------------||-------------------------|-----------------------|------------------------|


  II              -]                                                                                
                           ^                             ^                   ^                      
  Q    Q    E  E  E  E     Q    Q    E  E  E  E     Q    E  E  E  E  Q       Q    Q    E  E  E  E   
------------------------|--5----0----3-----1--0--|--1----1----------------|--3---------0-----------|
------------------------|------------1-----------|--1----0-----0----------|--1----1----------3-----|
--2----2----2-----------|---------------2--------|--0-------2-----0-------|-------0----2--0-----5--|
--2---------2--------0--|--2---------0-----------|-------------------3----|--2---------4-----------|
--5---------4--2--4-----|--4---------------------|------------------------|------------------------|
------------------5-----|------------------------|------------------------|------------------------|


       ^                   ^                        ^                        ^                      
  Q    E  E  Q    E  E     Q    Q    E  E  E  E     Q    E  E  Q    E  E     Q    Q    E  E  E  E   
------------------------|--5----0----3-----1--0--|--1----1-----1----------|--3---------0-----------|
--0----0-----0----------|------------1-----------|--1----0-----0----------|--1----1----------3-----|
--2----1-----1----------|---------------2--------|--0-------2-------0-----|-------0----2--0-----5--|
--2-------4-------2--0--|--2---------0-----------|---------------------3--|--2---------4-----------|
------------------------|--4---------------------|------------------------|------------------------|
------------------------|------------------------|------------------------|------------------------|


                             Tempo:70 >------------------------->-------------------->-- T:60 >-------
                               ^          ^             ^          ^            ^          ^           
  E  E  E  E  E  E  E  E       Q    E  E  Q    E  E     Q    E  E  Q    Q       Q    E  E  Q    E  E   
---------------------------||-------------0----------|-------------0---------|------------------------|
--1-----0-----------0------||--0----1--3-------3--1--|--0----1--3-------0----|--3----1--0----------0--|
-----0-----0-----0--------*||------------------------|--0----------2---------|-------------2----1-----|
--0-----------7--------3--*||--2----------3----------|--2----------3---------|--3----------2-------0--|
---------------------------||--3----------5----------|-----------------------|--2----------2----------|
---------------------------||------------------------|-----------------------|------------------------|


-----------------> T:50          CAPO 5th bar, then T:70 & DA SEGNO               
  ^         ^                                                       
  Q    Q    H           H        H                                  
---------------------|------------------------|-------------------||
---------------------|------------------------|-------------------||
--2----2----2--------|--L---------------------|-------------------||
--2---------2--------|--L---------------------|-------------------||
-------2----4--------|--L---------------------|-------------------||
---------------------|------------------------|-------------------||

Legend
---------------
W - whole
H - half
Q - quarter
E - 8th
L - tied note
^ - brush up
Login or Register to remove this ad.

2 comments on Mysterious Shrine

You're awesome :D

5

You're awesome :D

True... less sometimes, all

True... less sometimes, all time it ll be 2 tiring :)
Anyway thanks, if u like "medieval" sounds, u can also try to play my last update : http://www.gametabs.net/ultima-iii-exodus/town