Ads

Elegy (Symphonic) (Dragon Quest IV) Guitar Tab

Submitted: Dec 14, 2012 by diralark (Last updated: Dec 14, 2012)

5
Average: 5 (4 votes)
Download | Listen
Game: Dragon Quest IV
Composer(s): Koichi Sugiyama
Style: Arrangement, Fingerstyle
Series: Dragon Quest

AutoScroll: Slow | Medium | Fast
                    Elegy (symphonic)    ~       Dragon Quest IV

  Music by Koichi Sugiyama   >>  sequenced by Trick Waters  >>  guitar tab arr. by Diralark


Guitar, Drop D tuning, let ring (bass esp.), capo 3 (if u want sync with symphonic version)

    
     T(empo):54                                           acc.......T:68  T:62        
                                                            ^           ^                           
     Q    Q    Q    Q       E  E   E  E  Q.     E     E  E  E  E  E  E  E  E     H        H         
E||----------------------|-------------------------|--------------0-----3--1--|--1--------0--------|
B||-------1----0---------|---------------0---------|--1--0--3--1-----3--3-----|--------------------|
G||-----------------2----|--0-------------------2--|--------------------------|--------------------|
D||------------2---------|-----3p--2--3------------|--------------0--L--------|--------------------|
A||-------0--------------|-------------------------|--------0--L--------2--L--|--------------------|
D||----------------------|--0---------L--1---------|--2--L--------------------|--2-----------------|


  E  E  E  E  Q    Q       E  E  E  E  Q    Q         E  E  E  E  Q    Q       E  E  E  E  Q    Q     
------------------------|------------------------||---0---------------------|--0---------------------|
--------0-----3----1----|--------0-----3----1----||---------0-----3----1----|--------3-----0---------|
-----------2------------|-----------2------------||*-----------2------------|-----------5-------2----|
-----2------------------|-----2------------------||*-----2------------------|-----2------------------|
--0----------------L----|--0----------------L----||---0----------------L----|------------------------|
------------------------|------------------------||-------------------------|--4----------------L----|


              ^                                       ^                           ^            ^     
  E  E  E  E  E  E  E  E     E  E  E  E  Q    Q       E  E  E  E   H           E  E  Q    Q    Q     
--------------------------|------------------------|------------------------|------------------5----|
--------0-----3-----1-----|--0-----0-----3----1----|--0---------------------|--0--1-------3---------|
--0--------2--------0--2--|-----------2------------|--------0---------------|--------2---------5----|
-----3--------3--3--------|-----4------------------|-----2-----3S--2--------|-----2-----------------|
--------------------------|------------------------|------------------------|--0---------------L----|
--0--------------------L--|--1-----------L---------|--2--------L------------|-----------------------|


                                                     1.____________
                                                    
  E  E  E  E  Q    Q       E  E  E  E  E  E  Q       E  E  Q    Q    Q       E  E  E  E  Q    Q     
--L-----0---------------|-------------------------|-----------------------|------------------------|
--------0--1--3----1----|-----3--------3--5--3----|--0--1-------3----1----|--------0-----3----1----|
-----------2------------|--0-----5--4--4----------|--------2--------------|--2--------2------------|
-----2------------------|-------------------------|-----2-----------------|-----2------------------|
------------------------|-------------------------|--0---------------L----|--0----------------L----|
--3----------------L----|--2-----------------L----|-----------------------|------------------------|


      T:66
  V                                   ^                                                                     
  >  >  >  >  >  >  >  >     >  >  >  >  >  >  >  >     >  >  >  >  >  >  >  >     >  >  >  >  >  >  >  >   
  E  E  E  E  E  E  E  E     E  E  E  E  E  E  E  E     E  E  E  E  E  E  E  E     E  E  E  E  E  E  E  E   
-----------5--------3--7--|--0--0--3--0-----0--3--0--|-----------------------1--|-----------2-----------4--|
--5-----5-----0--3--------|--1--------1--2-----------|-----------3--------3-----|--0-----0-----------3-----|
-----5--------------------|--------------------2-----|--------2--------2-----2--|-----2-----------4--------|
--------------------------|--------------------------|-----3--------------------|--------------------------|
--0--------L--2-----L-----|--3--------L--4--------L--|--------------3-----------|--------------------------|
--------------------------|--------------------------|--0--------L-----------L--|--1--------L--2--------L--|


     ^        V              IV +V(2)     III                                     
  >  >  >  >  >  >  >  >     >   >  >  >  >   >  >  >     >  >  >  >  >  >  >     
  E  E  E  E  E  E  E  E     E   E  E  E  E   E  E  E     E  E  E  E  E  E  Q     
-----------0-----------5--|------------5---------------|-----------------0-------|
--0--1--------------5-----|---------5------------5-----|--------3--0--3-----3----|
--------2--------5--------|------5-----5--4---5-----5--|--0--4--------4----------|
-----2--------5-----------|--4------------3------------|-------------------------|
--0--------L--------------|----------------------------|-------------------------|
--------------5--------L--|--4---------L--3---------L--|--2-----------------L----|

      
      T:64                                            V     ^                             ^               
  >  >  >  >  >    >       >  >  >  >  >  >  >  >     >  >  >  >  >  >  >  >     >  >  >  >  >  >  >  >   
  E  E  E  E  Q    Q       E  E  E  E  E  E  E  E     E  E  E  E  E  E  E  E     E  E  E  E  E  E  E  E   
-----0------------------|--------------------5--7--|--8-----7--8--5-----0-----|-----------0--1--3--5--7--|
--3-----------3----1----|--0-----3--5--6--8--6-----|--------5-----5--------1--|--0--1--3--0--------6-----|
--4--5--5--2-------2----|-----5--4-----------------|-----5-----------5--------|--------------------------|
------------------------|-----0--------0--------L--|--------------------------|--------2-----------0-----|
--0----------------L----|--------------------------|--0--------------L--------|--------------------------|
------------------------|--5--------L--------------|--------------------3-----|--2--------------L--------|


               ^      T:62      ^                        ^                         ^
               V(3)             VII                                                                         
   >  >  >  >  >    >  >  >     >    >  >  >     >       >  >  >  >  >                                     
   E  E  E  E  E    E  E  E     Q    E  E  Q     Q       E  E  E  E  Q    Q        E  E  E  E  E  E  E  E   
--10--8--7--8--5-------------|------------------------|-----0--------0----------|--------------------------|
---------------5-------5-----|--7-------7-------------|--7--------7-------------|--4-----------0-----------|
---------9----------5-----5--|--7----7-----9----------|--7-----7----------5~----|--5--5--5--4-----2--1--2--|
-----------------------------|------------------10----|-------------------------|--------------------------|
---0--------L----------3-----|------------------------|-------------------------|--------------2-----------|
---------------3----------L--|--7----------L----------|--0-----------L----------|--3--------L-----------L--|

                                                                              2._______________ 

  ^                                                              ^              rall..........T:50        
  H        H           E  E  E  E  Q    Q       E  E  E  E  Q    S S S S      E  E  Q    Q    Q     
--0-----------------|------------------------|----------------------------||------------------0----|
--1--------0--------|--------0-----3----1----|--------0-----3----1-0-1-3--||--0--1-------3---------|
--------------------|-----------2------------|-----------2-------2-------*||--------2--------------|
--------------------|-----2------------------|-----2---------------------*||-----2-----------------|
--------------------|--0----------------L----|--0----------------------L--||--0---------------L----|
--2-----------------|------------------------|----------------------------||-----------------------|


                            rall..........t:40
  ^                         ^              ^                                
  E  E  E  E  E  E  Q       E  E  E   E    H            H        H          
--1--0-------------------|----------------(5)--------|--L-----------------||
--1-----3--1--0--1--0----|--0--1-----(5)--(5)--------|--L-----------------||
--2----------------------|--2--------(5)--(5)--------|--L-----------------||
--0--------L-------------|--2--2--7-------(7)--------|--L-----------------||
-------------------------|--0-----L------------------|--------------------||
--------------2-----L----|---------------------------|--------------------||

Legend
---------------
H - half
Q - quarter
E - 8th
S - 16th
. - note dotted
L - tied note
(n) - ghost note
> - accentuded note
^ - brush up

NOTE 1 : Left hand fingersteps can be find from the *.gp5 file.

NOTE 2 : Listen to the delicious Symphonic version here (first part) : http://www.youtube.com/watch?v=fFIy9RAoToI
(Performed by The London Philharmonic Orchestra, Composed and Conducted by Koichi Sugiyama).
Login or Register to remove this ad.

2 comments on Elegy (Symphonic)

Awesome!

5

Awesome!

Thanks C:

Since Koichi Sugiyama is my favorite video game composer, I did my best.
Btw, the second part in the video is called : Mysterious Shrine & u can also find the tab on gametabs.com