Ads

Elegy (Dragon Quest IV) Guitar Tab

Submitted: Sep 19, 2010 by musenji (Last updated: Jun 01, 2012)

5
Average: 5 (1 vote)
Download | Listen
Game: Dragon Quest IV
Composer(s): Koichi Sugiyama
Style: Fingerstyle, Transcription
Series: Dragon Quest

AutoScroll: Slow | Medium | Fast
Dragon Warrior IV
Elegy
composed by Koichi Sugiyama
tabbed by musenji, 2010


I think of this as the Aktempo Mine theme.

This is just the accompaniment, but it's pretty difficult for the left
hand.  Or...good practice.  It's good practice for the left hand.

In the second to last line, last measure, you half-barre the 8th fret
with your pinky.  Fun, yeah?  :D  Feel free to leave out the octaves
in section B if it makes it easier.


                                     A

-----------------|-----------------|-----------------|-----------------|
-----4---6---4---|-----4---6---4---|-----4---6---4---|-----4---6---4---|
---0-7-5-0-------|---0-7-5-0-------|---0-7-5---------|---0-7-5---------|
-----------------|-----------------|-----------------|-----------------|
-3---------------|-3---------------|-3---------------|-0---------------|
-----------------|-----------------|-----------------|-----------------|

-----------------|-----2-----------|---------4---3---|-----------------|
-----4---6---4---|-----3---7-------|-----0---0-------|-----4---6---4---|
---5-7-5---------|---2---5-10--8---|---0-3-1---------|---0-7-5---------|
-3---------------|-----------------|-----------------|-----------------|
-----------------|-----------------|-----------------|-3---------------|
-----------------|-2---------------|-3---------------|-----------------|

-----------------|-----------------|-----------------|-----------------|
-----4---6---4---|---6-4-3-6-8-6---|-----4---6---4---|-----4---6---4---|
-----7-5---------|-0-------0-------|---0-7-5---------|---0-7-5---------|
---5-------------|-----------------|-----------------|-----------------|
-----------------|-----------------|-3---------------|-3---------------|
-4---------------|-----------------|-----------------|-----------------|


B

--------8----------10-|-----6-------6---|-------1-----1-4-|
------8---------11----|---8---8---8---8-|-----1-----1-----|
----8--------10-------|-8-------9-------|---1-------------|
-10-------12----------|-----------------|-3-------1-------|
----------------------|-6-------7-------|-----------------|
-8--------10----------|-----------------|-----------------|

-------5-------7-|----------------8-|-------8---------|
-----3-------6---|--------8-----8---|-----8-------8---|
---5-------7-----|------8-----8-----|---8-------8---8-|
-4-------5-------|----------8-------|-7-------6-------|
-----------------|---10-------------|-----------------|
-----------------|-8--------6-------|-5-------4-------|

-----------------|-----------------|-----------------|  to "A"
---3-6-3-6-8-6---|-6-8-4---6---4---|-----4---6---4---|
---------0-------|---0-7-5---------|---0-7-5-0-------|
-----------------|-----------------|-----------------|
-----------------|-----------------|-3---------------|
-3---------------|-8---------------|-----------------|
Login or Register to remove this ad.

1 comment on Elegy

I love the symphonic version

I love the symphonic version : http://www.youtube.com/watch?v=yrPYR9tsU7I