Small Shrine (Dragon Quest III) Guitar Tab

Submitted: Feb 08, 2011 by musenji (Last updated: May 28, 2012)

5
Average: 5 (5 votes)
Download | Listen
Game: Dragon Quest III
Composer(s): Koichi Sugiyama
Style: Transcription
Series: Dragon Quest

AutoScroll: Slow | Medium | Fast
Dragon Warrior III
Small Shrine
composed by Koichi Sugiyama
tabbed by musenji, 2011


Standard tuning


-12---10-8-10---7---|-8-7-5---5-------|-5---3---3---1-3-|-0-----------7---|
-10---------8-------|-6-----8-5-------|-3-----6-1-------|-0---------------|
-10---------9-------|-7-------7---5---|-4-------2-------|-2---1---1-------|
--------------------|-----------------|-----------------|-------4---------|
--------------------|-----------------|-----------------|-----------------|
--------------------|-----------------|-----------------|-----------------|


|-8---8---10-8-7----|-7-8-10-12-10---8-7-|-5---7-8-7-5-3-5-|-0-----------7--|
|-6--------7-----10-|-8----------7-------|-6-------5---4---|-3-1-0----------|
|-7--------8--------|-9----------8-------|-7-------6---5---|-4-2-1-2-1------|
|-------------------|--------------------|-----------------|-------4-2------|
|-------------------|--------------------|-----------------|----------------|
|-------------------|--------------------|-----------------|----------------|
Login or Register to remove this ad.