Ads

Rondo (Dragon Quest III) Guitar Tab

Submitted: Apr 22, 2012 by DQClassicalGuitar89

4
Average: 4 (1 vote)
Download | Listen
Game: Dragon Quest III
Composer(s): Koichi Sugiyama
Style: 2 or more instruments, Transcription
Series: Dragon Quest

AutoScroll: Slow | Medium | Fast
                                    Rondo                                       


                                                                 Koichi Sugiyama
Violino 1

     W                    S.T  S.T  E   Q     S  S  S  S  S  S  
E||-------------------|-------12---15--20----19-17-15-13-12-10-|
B||-------------------|--13------------------------------------|
G||-------------------|----------------------------------------|
D||-------------------|----------------------------------------|
A||-------------------|----------------------------------------|
E||-------------------|----------------------------------------|


   S  S  S  S  S  S  S  S S  S  S S  E   E   
--12-13-15-12-10-12-13-10-9-10-12-9---------|
------------------------------------10--10--|
--------------------------------------------|
--------------------------------------------|
--------------------------------------------|
--------------------------------------------|


   E   E   E   Q     S  S  S  S  S  S     S  S  S  S  E   E   H         
--10--13--17--22----22-20-19-20-19-17-|--16-17-19-16-----16--17--------|
--------------------------------------|--------------17----------------|
--------------------------------------|--------------------------------|
--------------------------------------|--------------------------------|
--------------------------------------|--------------------------------|
--------------------------------------|--------------------------------|


   E   E   E   E   H            E   E   E   E   H         
--14--14--14--14--15--------|--12--12--12--12--13--------|
----------------------------|----------------------------|
----------------------------|----------------------------|
----------------------------|----------------------------|
----------------------------|----------------------------|
----------------------------|----------------------------|


   E   E   E   E   S  S  E   S  S  E      S S  S  S  E   E   H         
--10--10--10--10--12-14-16--17-19-20--|--22---------------------------|
--------------------------------------|-------------19------20--------|
--------------------------------------|-------19-21-----19------------|
--------------------------------------|-------------------------------|
--------------------------------------|-------------------------------|
--------------------------------------|-------------------------------|


  W                   W                    E   E   E   Q     S  S  S  S  S  S  
-------------------|-------------------|--13--16--20--25----24-25-27-25-24-27-|
-------------------|-------------------|--------------------------------------|
-------------------|-------------------|--------------------------------------|
-------------------|-------------------|--------------------------------------|
-------------------|-------------------|--------------------------------------|
-------------------|-------------------|--------------------------------------|


   S  S  S  S  S  S  S  S  E   Q     E     H         Q     S  S  S  S  
--25-23-22-20-18-16-15-13-15------------|-----------------16-15-13-12-|
------------------------------16--------|-----------17----------------|
------------------------------------15--|--L--------------------------|
----------------------------------------|-----------------------------|
----------------------------------------|-----------------------------|
----------------------------------------|-----------------------------|


   E   E   E   E   E   E   E   E      E   E   E   E   E   E   E   E   
--13------------------------------|----------------------------------|
------13--------------12------12--|--13--13--13--13--13--13--13--13--|
----------13--10----------12------|----------------------------------|
------------------12--------------|----------------------------------|
----------------------------------|----------------------------------|
----------------------------------|----------------------------------|


   E   E   E   E   E   E   E   E      E   E   E   E   E   E   E   E   
--10--10--10--10--11--11--11--11--|--12--12--12--12--13--13--13--13--|
----------------------------------|----------------------------------|
----------------------------------|----------------------------------|
----------------------------------|----------------------------------|
----------------------------------|----------------------------------|
----------------------------------|----------------------------------|


   E   E   E   E   E  Q.         E   E   E   Q     S  S  S  S  S  S  
--14--14--14--14--15---------|------12--15--20----19-17-15-13-12-10-|
-----------------------------|--13----------------------------------|
-----------------------------|--------------------------------------|
-----------------------------|--------------------------------------|
-----------------------------|--------------------------------------|
-----------------------------|--------------------------------------|


   S  S  S  S  S  S  S  S S  S  S S  E   E   
--12-13-15-12-10-12-13-10-9-10-12-9---------|
------------------------------------10--10--|
--------------------------------------------|
--------------------------------------------|
--------------------------------------------|
--------------------------------------------|


   E   E   E   Q     S  S  S  S  S  S     S  S  S  S  E   E   H         
--10--13--17--22----22-20-19-20-19-17-|--16-17-19-16-----16--17--------|
--------------------------------------|--------------17----------------|
--------------------------------------|--------------------------------|
--------------------------------------|--------------------------------|
--------------------------------------|--------------------------------|
--------------------------------------|--------------------------------|


   E   E   E   E   H            E   E   E   E   H         
--14--14--14--14--15--------|--12--12--12--12--13--------|
----------------------------|----------------------------|
----------------------------|----------------------------|
----------------------------|----------------------------|
----------------------------|----------------------------|
----------------------------|----------------------------|


   E   E   E   E   S  S  E   S  S  E      S S  S  S  E   E   H         
--10--10--10--10--12-14-16--17-19-20--|--22---------------------------|
--------------------------------------|-------------19------20--------|
--------------------------------------|-------19-21-----19------------|
--------------------------------------|-------------------------------|
--------------------------------------|-------------------------------|
--------------------------------------|-------------------------------|


  W                   W                    E   E   E   Q     S  S  S  S  S  S  
-------------------|-------------------|--13--16--20--25----24-25-27-25-24-27-|
-------------------|-------------------|--------------------------------------|
-------------------|-------------------|--------------------------------------|
-------------------|-------------------|--------------------------------------|
-------------------|-------------------|--------------------------------------|
-------------------|-------------------|--------------------------------------|


   S  S  S  S  S  S  S  S  E   Q     E     H         Q     S  S  S  S  
--25-23-22-20-18-16-15-13-15------------|-----------------16-15-13-12-|
------------------------------16--------|-----------17----------------|
------------------------------------15--|--L--------------------------|
----------------------------------------|-----------------------------|
----------------------------------------|-----------------------------|
----------------------------------------|-----------------------------|


   E   E   E   E   E   E   E   E      E   E   E   E   E   E   E   E   
--13------------------------------|----------------------------------|
------13--------------12------12--|--13--13--13--13--13--13--13--13--|
----------13--10----------12------|----------------------------------|
------------------12--------------|----------------------------------|
----------------------------------|----------------------------------|
----------------------------------|----------------------------------|


   E   E   E   E   E   E   E   E      E   E   E   E   E   E   E   E   
--10--10--10--10--11--11--11--11--|--12--12--12--12--13--13--13--13--|
----------------------------------|----------------------------------|
----------------------------------|----------------------------------|
----------------------------------|----------------------------------|
----------------------------------|----------------------------------|
----------------------------------|----------------------------------|


   E   E   E   E   E  Q.         Q     Q     Q     Q     
--14--14--14--14--15---------|--------------------------|
-----------------------------|--------------------13----|
-----------------------------|--------------12----------|
-----------------------------|--------13----------------|
-----------------------------|--15----------------------|
-----------------------------|--------------------------|


  E   S  S  S S S  S S  S  S  S  S  S  S  S  
-----------10-8-7-10-8-10-12-13-15-16-18----|
--L--12-13-------------------------------20-|
--------------------------------------------|
--------------------------------------------|
--------------------------------------------|
--------------------------------------------|


  S  S  S  S S  S S  S S  S  S  S S  S S  S  
--------------------------------------------|
--------------------------------------------|
----17-16-17---17---17----------------------|
-------------------------18-17-18---18---18-|
--------------------------------------------|
--------------------------------------------|


  S  S  S  S S  S S  S  S  S  S  S  S  S S S  
---------------------------------------------|
--------------------------15-----------------|
-----------------------16----16-13-12-10-9-7-|
----15-14-15---15---15-----------------------|
---------------------------------------------|
---------------------------------------------|


  S T T T T T T S S S S S T T T T  T  T  S  S  S  S  
----------3-5-7-8-----------5-7-8-10-11-13----------|
------4-6---------------6-8----------------10----10-|
--5-7-------------8-7-8-----------------------12----|
----------------------------------------------------|
----------------------------------------------------|
----------------------------------------------------|


  T  T T  T  T  T  T  T  S  S  S  S  S  S  S  S  S  S  S  S  
-------8-10-11-13-15-16-17-23-22-20-19-20-19----------------|
--9-11---------------------------------------21-20-18-------|
------------------------------------------------------20-19-|
------------------------------------------------------------|
------------------------------------------------------------|
------------------------------------------------------------|


   H         S  S  S  S  S  S  S  S     H         S  S  S S S S S  S  
------------------------------------|--12--------13-----------8-8-13-|
------------15-------------------15-|--11--------13-------9-9--------|
--18-----------------------14-14----|--12--------13-10-10------------|
--17--------15-------15-15----------|--------------------------------|
--19--------17-17-17----------------|--------------------------------|
------------------------------------|--------------------------------|


   H         S  S  S  S  S  S  S  S  
--14--------15----------------10-15-|
--13-----------------------11-------|
--14--------15----------12----------|
------------17-------12-------------|
------------------13----------------|
---------------15-------------------|


   S  S  S  S  S  S  S  S  S  S  S  S  S  S  S  S  
--17----------------14-17-19----------------------|
-----------------15-------20----------------------|
--17----------------------19-------------------16-|
-----------16-18-------------------------17-19----|
--------17----------------------17-19-20----------|
-----16----------------------20-------------------|


   S.T  S.T  E   Q     S  S  S  S  S  S  
-------12---15--20----19-17-15-13-12-10-|
--13------------------------------------|
----------------------------------------|
----------------------------------------|
----------------------------------------|
----------------------------------------|


   S  S  S  S  S  S  S  S S  S  S S  E   E   
--12-13-15-12-10-12-13-10-9-10-12-9---------|
------------------------------------10--10--|
--------------------------------------------|
--------------------------------------------|
--------------------------------------------|
--------------------------------------------|


   E   E   E   Q     S  S  S  S  S  S     S  S  S  S  E   E   H         
--10--13--17--22----22-20-19-20-19-17-|--16-17-19-16-----16--17--------|
--------------------------------------|--------------17----------------|
--------------------------------------|--------------------------------|
--------------------------------------|--------------------------------|
--------------------------------------|--------------------------------|
--------------------------------------|--------------------------------|


   E   E   E   E   H            E   E   E   E   H         
--14--14--14--14--15--------|--12--12--12--12--13--------|
----------------------------|----------------------------|
----------------------------|----------------------------|
----------------------------|----------------------------|
----------------------------|----------------------------|
----------------------------|----------------------------|


   E   E   E   E   S  S  E   S  S  E      S S  S  S  E   E   H         
--10--10--10--10--12-14-16--17-19-20--|--22---------------------------|
--------------------------------------|-------------19------20--------|
--------------------------------------|-------19-21-----19------------|
--------------------------------------|-------------------------------|
--------------------------------------|-------------------------------|
--------------------------------------|-------------------------------|


  W                   W                    E   E   E   Q     S  S  S  S  S  S  
-------------------|-------------------|--13--16--20--25----24-25-27-25-24-27-|
-------------------|-------------------|--------------------------------------|
-------------------|-------------------|--------------------------------------|
-------------------|-------------------|--------------------------------------|
-------------------|-------------------|--------------------------------------|
-------------------|-------------------|--------------------------------------|


   S  S  S  S  S  S  S  S  E   Q     E     H         Q     S  S  S  S  
--25-23-22-20-18-16-15-13-15------------|-----------------16-15-13-12-|
------------------------------16--------|-----------17----------------|
------------------------------------15--|--L--------------------------|
----------------------------------------|-----------------------------|
----------------------------------------|-----------------------------|
----------------------------------------|-----------------------------|


   E   E   E   E   E   E   E   E      E   E   E   E   E   E   E   E   
--13------------------------------|----------------------------------|
------13--------------12------12--|--13--13--13--13--13--13--13--13--|
----------13--10----------12------|----------------------------------|
------------------12--------------|----------------------------------|
----------------------------------|----------------------------------|
----------------------------------|----------------------------------|


   E   E   E   E   E   E   E   E      E   E   E   E   E   E   E   E   
--10--10--10--10--11--11--11--11--|--12--12--12--12--13--13--13--13--|
----------------------------------|----------------------------------|
----------------------------------|----------------------------------|
----------------------------------|----------------------------------|
----------------------------------|----------------------------------|
----------------------------------|----------------------------------|


   E   E   E   E   E  Q.        Q    Q    Q    Q      
--14--14--14--14--15---------|-------8---------8----||
-----------------------------|----------------------||
-----------------------------|----------------------||
-----------------------------|----------------------||
-----------------------------|----------------------||
-----------------------------|----------------------||




Violino 2

     W                   E  H         S S S S S S  
E||-------------------|--------------10-8-7-5-3-7-|
B||-------------------|---------------------------|
G||-------------------|--9------------------------|
D||-------------------|---------------------------|
A||-------------------|---------------------------|
E||-------------------|---------------------------|


  S  S  S  S  E   E  S  S S S E  E     E  H         S  S  S  S  S S  
--8-10-12---------------------------|--------------13-12-10-12-10-8-|
----------13-----12-------8------5--|--6----------------------------|
-------------12------9-10---9-6-----|-------------------------------|
------------------------------------|-------------------------------|
------------------------------------|-------------------------------|
------------------------------------|-------------------------------|


  S S  S S E   E  H            E   E  E  E  H           E  E  E  E  H         
--7-8-10-7----10--8--------|----------8--8--7--------|--9--9--------5--------|
-----------9---------------|--10--10-----------------|--------8--8-----------|
---------------------------|-------------------------|-----------------------|
---------------------------|-------------------------|-----------------------|
---------------------------|-------------------------|-----------------------|
---------------------------|-------------------------|-----------------------|


  E  E  E  E  S S E  S  S  E      S S  E   E   E   Q     Q     
--------5--5--4-5-7--8-10-12--|--17---------------------------|
--6--6------------------------|-----------13--13--13----12----|
------------------------------|-------14----------------------|
------------------------------|-------------------------------|
------------------------------|-------------------------------|
------------------------------|-------------------------------|


   E  E  E  Q    S S  S S S  S    S S S S S S S S E  Q    E   
------------8----7-8-10-8-7-10-|--8-9-8-6-4-3-1-0-1-------4--|
---------8---------------------|---------------------1-------|
------8------------------------|-----------------------------|
--10---------------------------|-----------------------------|
-------------------------------|-----------------------------|
-------------------------------|-----------------------------|


  H        Q     S  S S S    E  E  E  E  E  E  E  E   
--L--------8----12-10-8-6-|--4--------------3--6--3--|
--------------------------|-----6--3-----4-----------|
--------------------------|-----------3--------------|
--------------------------|--------------------------|
--------------------------|--------------------------|
--------------------------|--------------------------|


  E  Q    Q    E  S. T S. T    S. T S. T Q    E  S S S S S S  
--0--3----3----3--1----6----|--8-----------------------------|
----------------------------|-------6----------------6-----6-|
----------------------------|--------------------7-8---8-7---|
----------------------------|------------8-------------------|
----------------------------|--------------------------------|
----------------------------|--------------------------------|


  S S S S S S S S S S S S S S S S    S S S S S S S S S S S S S S S S  
----3---3---3---3-1-4-1-4-1-4-1-4-|--1-7---7---7---7---8---8---8---8-|
--4---4---4---4-------------------|------6---6---6---8---8---8---8---|
----------------------------------|----------------------------------|
----------------------------------|----------------------------------|
----------------------------------|----------------------------------|
----------------------------------|----------------------------------|


  S S S S S S S S S S S S S S S S    S  S  S  S  S  S  S  S E  Q.      
----6---6---6---6-4-8-4-8-4-8-4-8-|--5-10----10----10----10-8---------|
--8---8---8---8-------------------|-------10----10----10--------------|
----------------------------------|-----------------------------------|
----------------------------------|-----------------------------------|
----------------------------------|-----------------------------------|
----------------------------------|-----------------------------------|


  E  H         S S S S S S    S  S  S  S  E   E  S  S S S E  E   
--------------10-8-7-5-3-7-|--8-10-12---------------------------|
---------------------------|----------13-----12-------8------5--|
--9------------------------|-------------12------9-10---9-6-----|
---------------------------|------------------------------------|
---------------------------|------------------------------------|
---------------------------|------------------------------------|


  E  H         S  S  S  S  S S    S S  S S E   E  H         
--------------13-12-10-12-10-8-|--7-8-10-7----10--8--------|
--6----------------------------|-----------9---------------|
-------------------------------|---------------------------|
-------------------------------|---------------------------|
-------------------------------|---------------------------|
-------------------------------|---------------------------|


   E   E  E  E  H           E  E  E  E  H         
----------8--8--7--------|--9--9--------5--------|
--10--10-----------------|--------8--8-----------|
-------------------------|-----------------------|
-------------------------|-----------------------|
-------------------------|-----------------------|
-------------------------|-----------------------|


  E  E  E  E  S S E  S  S  E      S S  E   E   E   Q     Q     
--------5--5--4-5-7--8-10-12--|--17---------------------------|
--6--6------------------------|-----------13--13--13----12----|
------------------------------|-------14----------------------|
------------------------------|-------------------------------|
------------------------------|-------------------------------|
------------------------------|-------------------------------|


   E  E  E  Q    S S  S S S  S    S S S S S S S S E  Q    E   
------------8----7-8-10-8-7-10-|--8-9-8-6-4-3-1-0-1-------4--|
---------8---------------------|---------------------1-------|
------8------------------------|-----------------------------|
--10---------------------------|-----------------------------|
-------------------------------|-----------------------------|
-------------------------------|-----------------------------|


  H        Q     S  S S S    E  E  E  E  E  E  E  E   
--L--------8----12-10-8-6-|--4--------------3--6--3--|
--------------------------|-----6--3-----4-----------|
--------------------------|-----------3--------------|
--------------------------|--------------------------|
--------------------------|--------------------------|
--------------------------|--------------------------|


  E  Q    Q    E  S. T S. T    S. T S. T Q    E  S S S S S S  
--0--3----3----3--1----6----|--8-----------------------------|
----------------------------|-------6----------------6-----6-|
----------------------------|--------------------7-8---8-7---|
----------------------------|------------8-------------------|
----------------------------|--------------------------------|
----------------------------|--------------------------------|


  S S S S S S S S S S S S S S S S    S S S S S S S S S S S S S S S S  
----3---3---3---3-1-4-1-4-1-4-1-4-|--1-7---7---7---7---8---8---8---8-|
--4---4---4---4-------------------|------6---6---6---8---8---8---8---|
----------------------------------|----------------------------------|
----------------------------------|----------------------------------|
----------------------------------|----------------------------------|
----------------------------------|----------------------------------|


  S S S S S S S S S S S S S S S S    S  S  S  S  S  S  S  S E  Q.      
----6---6---6---6-4-8-4-8-4-8-4-8-|--5-10----10----10----10-8---------|
--8---8---8---8-------------------|-------10----10----10--------------|
----------------------------------|-----------------------------------|
----------------------------------|-----------------------------------|
----------------------------------|-----------------------------------|
----------------------------------|-----------------------------------|


  E  H         S  S  S  S  S S    S S  S S E   E  H           W                 
--------------13-12-10-12-10-8-|--7-8-10-7----10--8--------|-------------------|
--6----------------------------|-----------9---------------|-------------------|
-------------------------------|---------------------------|-------------------|
-------------------------------|---------------------------|-------------------|
-------------------------------|---------------------------|-------------------|
-------------------------------|---------------------------|-------------------|


  E  E  E  E  E  E  E  E     E  E  E  E  E  E  E  E     E  E  E  E  Q    Q     
-----3--3--3-----3--3--3--|--1--1--1-----1--1--1-----|------------------------|
--4-----------4-----------|-----------4-----------1--|--0--0--0--1------------|
--------------------------|--------------------------|--------------0---------|
--------------------------|--------------------------|------------------------|
--------------------------|--------------------------|------------------------|
--------------------------|--------------------------|------------------------|


  W                   Q    Q    Q    Q       E  E  E  E  Q    Q     
-------------------|----------------------|------------------------|
-------------------|--3---------3---------|--2---------------------|
-------------------|----------------------|-----3--0---------------|
-------------------|--4---------4---------|-----------2--0---------|
-------------------|----------------------|------------------------|
-------------------|----------------------|------------------------|


  E  E  E  E  Q    Q       E  H         S S S S S S  
--0---------------------|--------------10-8-7-5-3-7-|
-----2------------------|---------------------------|
--------3--0------------|--9------------------------|
--------------3---------|---------------------------|
------------------------|---------------------------|
------------------------|---------------------------|


  S  S  S  S  E   E  S  S S S E  E     E  H         S  S  S  S  S S  
--8-10-12---------------------------|--------------13-12-10-12-10-8-|
----------13-----12-------8------5--|--6----------------------------|
-------------12------9-10---9-6-----|-------------------------------|
------------------------------------|-------------------------------|
------------------------------------|-------------------------------|
------------------------------------|-------------------------------|


  S S  S S E   E  H            E   E  E  E  H           E  E  E  E  H         
--7-8-10-7----10--8--------|----------8--8--7--------|--9--9--------5--------|
-----------9---------------|--10--10-----------------|--------8--8-----------|
---------------------------|-------------------------|-----------------------|
---------------------------|-------------------------|-----------------------|
---------------------------|-------------------------|-----------------------|
---------------------------|-------------------------|-----------------------|


  E  E  E  E  S S E  S  S  E      S S  E   E   E   Q     Q     
--------5--5--4-5-7--8-10-12--|--17---------------------------|
--6--6------------------------|-----------13--13--13----12----|
------------------------------|-------14----------------------|
------------------------------|-------------------------------|
------------------------------|-------------------------------|
------------------------------|-------------------------------|


   E  E  E  Q    S S  S S S  S    S S S S S S S S E  Q    E   
------------8----7-8-10-8-7-10-|--8-9-8-6-4-3-1-0-1-------4--|
---------8---------------------|---------------------1-------|
------8------------------------|-----------------------------|
--10---------------------------|-----------------------------|
-------------------------------|-----------------------------|
-------------------------------|-----------------------------|


  H        Q     S  S S S    E  E  E  E  E  E  E  E   
--L--------8----12-10-8-6-|--4--------------3--6--3--|
--------------------------|-----6--3-----4-----------|
--------------------------|-----------3--------------|
--------------------------|--------------------------|
--------------------------|--------------------------|
--------------------------|--------------------------|


  E  Q    Q    E  S. T S. T    S. T S. T Q    E  S S S S S S  
--0--3----3----3--1----6----|--8-----------------------------|
----------------------------|-------6----------------6-----6-|
----------------------------|--------------------7-8---8-7---|
----------------------------|------------8-------------------|
----------------------------|--------------------------------|
----------------------------|--------------------------------|


  S S S S S S S S S S S S S S S S    S S S S S S S S S S S S S S S S  
----3---3---3---3-1-4-1-4-1-4-1-4-|--1-7---7---7---7---8---8---8---8-|
--4---4---4---4-------------------|------6---6---6---8---8---8---8---|
----------------------------------|----------------------------------|
----------------------------------|----------------------------------|
----------------------------------|----------------------------------|
----------------------------------|----------------------------------|


  S S S S S S S S S S S S S S S S    S  S  S  S  S  S  S  S E  Q.      
----6---6---6---6-4-8-4-8-4-8-4-8-|--5-10----10----10----10-8---------|
--8---8---8---8-------------------|-------10----10----10--------------|
----------------------------------|-----------------------------------|
----------------------------------|-----------------------------------|
----------------------------------|-----------------------------------|
----------------------------------|-----------------------------------|


  Q    Q    Q    Q      
----------------------||
-------1---------1----||
----------------------||
----------------------||
----------------------||
----------------------||




Viola

     W                   E  Q.     Q    Q       E  E  E  E  E  E  E  E   
E||-------------------|----------------------|--------------------------|
B||-------------------|----------------------|-----1--0-----------------|
G||-------------------|------------0---------|-----------0--2-----------|
D||-------------------|----------------------|-----------------2--------|
A||-------------------|--3-------------------|--3-----------------0--4--|
E||-------------------|-----------------3----|--------------------------|


  E  Q.     Q    Q       Q.     E  E  E  E  E     H        S S S S S S S S  
----------------------|------------------------|---------------------------|
----------------------|------------------------|---------------------------|
------------0---------|------------2-----------|-------------------------0-|
--0-------------------|--2------2-----2--------|--0----------------0-2-3---|
----------------------|------------------3--0--|-------------0-2-3---------|
-----------------3----|------------------------|-----------3---------------|


  E  E  E  E  S S S S S S S S    Q    Q    E  S S S S S S  
------------------------------|---------------0-----------|
------------------------0-1-3-|--0--------------3-1-0-----|
--2-----------------0-2-------|-----------------------2-0-|
-----2--------0-2-3-----------|------------2--------------|
--------4--0------------------|-------2-------------------|
------------------------------|---------------------------|


  Q    E  E  H           W                   W                 
----------------------|-------------------|-------------------|
----------------------|-------------------|-------------------|
-------------0--------|-------------------|-------------------|
--4----0--4-----------|-------------------|-------------------|
----------------------|-------------------|-------------------|
----------------------|-------------------|-------------------|


  W                   W                   E  E  E  Q    S S S S S S  
-------------------|-------------------|----------------------------|
-------------------|-------------------|----------------1-2-1-------|
-------------------|-------------------|--------0--3----------3-1-0-|
-------------------|-------------------|-----2----------------------|
-------------------|-------------------|--3-------------------------|
-------------------|-------------------|----------------------------|


  S S S S S S S S E  Q    E     Q    Q    Q    Q       Q    Q    Q    Q     
-----------------------------|----------------------|----------------------|
-----------------------------|--1----1----1----1----|--1----1----1----1----|
--1-3-1-0-----------------0--|----------------------|----------------------|
----------3-1-0--------------|----------------------|----------------------|
----------------3-2----------|----------------------|----------------------|
---------------------3-------|----------------------|----------------------|


  Q    Q    Q    Q       Q    Q    S S S S S S S S    E  Q.     Q    Q     
----------------------|----------------------------|----------------------|
--1----1----1----1----|--1----1--------------------|----------------------|
----------------------|--------------------------0-|------------0---------|
----------------------|--------------------0-1-3---|----------------------|
----------------------|--------------0-2-3---------|--3-------------------|
----------------------|------------3---------------|-----------------3----|


  E  E  E  E  E  E  E  E     E  Q.     Q    Q       Q.     E  E  E  E  E   
--------------------------|----------------------|------------------------|
-----1--0-----------------|----------------------|------------------------|
-----------0--2-----------|------------0---------|------------2-----------|
-----------------2--------|--0-------------------|--2------2-----2--------|
--3-----------------0--4--|----------------------|------------------3--0--|
--------------------------|-----------------3----|------------------------|


  H        S S S S S S S S    E  E  E  E  S S S S S S S S  
---------------------------|------------------------------|
---------------------------|------------------------0-1-3-|
-------------------------0-|--2-----------------0-2-------|
--0----------------0-2-3---|-----2--------0-2-3-----------|
-------------0-2-3---------|--------4--0------------------|
-----------3---------------|------------------------------|


  Q    Q    E  S S S S S S    Q    E  E  H           W                 
---------------0-----------|----------------------|-------------------|
--0--------------3-1-0-----|----------------------|-------------------|
-----------------------2-0-|-------------0--------|-------------------|
------------2--------------|--4----0--4-----------|-------------------|
-------2-------------------|----------------------|-------------------|
---------------------------|----------------------|-------------------|


  W                   W                   W                 
-------------------|-------------------|-------------------|
-------------------|-------------------|-------------------|
-------------------|-------------------|-------------------|
-------------------|-------------------|-------------------|
-------------------|-------------------|-------------------|
-------------------|-------------------|-------------------|


  E  E  E  Q    S S S S S S    S S S S S S S S E  Q    E   
----------------------------|-----------------------------|
----------------1-2-1-------|-----------------------------|
--------0--3----------3-1-0-|--1-3-1-0-----------------0--|
-----2----------------------|----------3-1-0--------------|
--3-------------------------|----------------3-2----------|
----------------------------|---------------------3-------|


  Q    Q    Q    Q       Q    Q    Q    Q       Q    Q    Q    Q     
----------------------|----------------------|----------------------|
--1----1----1----1----|--1----1----1----1----|--1----1----1----1----|
----------------------|----------------------|----------------------|
----------------------|----------------------|----------------------|
----------------------|----------------------|----------------------|
----------------------|----------------------|----------------------|


  Q    Q    S S S S S S S S    Q    Q    Q    Q       E  H.           E   
----------------------------|----------------------|---------------------|
--1----1--------------------|----------------------|---------------------|
--------------------------0-|----------------------|---------------------|
--------------------0-1-3---|----------------------|---------------------|
--------------0-2-3---------|-----------------3----|---------------------|
------------3---------------|------------3---------|---------------------|


  E  E  E  E  E  E  E  E     E  E  E  E  Q    Q       Q    Q    Q    Q     
--------------------------|------------------------|----------------------|
--------------------------|------------------------|----------------------|
--------------------------|------------------------|----------------------|
--------------------------|------------------------|----------------------|
--------------------------|-----------3--2---------|-------3--------------|
--4-----4--3--1-----1-----|-------------------3----|------------1----1----|


  Q    Q    Q    Q       Q    Q    Q.     E     Q.     E  Q.     E   
----------------------|----------------------|----------------------|
----------------------|----------------------|----------------------|
----------------------|----------------------|----------------------|
----------------------|----------------------|----------------------|
----------------------|--0-------------------|----------------------|
-------2----3----3----|-------0--------------|------------1------1--|


  Q.     E  Q.     E     Q.     E  Q    Q       E  Q.     Q    Q     
----------------------|----------------------|----------------------|
----------------------|----------------------|----------------------|
----------------------|----------------------|------------0---------|
----------------------|----------------------|----------------------|
----------------------|----------------------|--3-------------------|
------------3------3--|---------2--3----3----|-----------------3----|


  E  E  E  E  E  E  E  E     E  Q.     Q    Q       Q.     E  E  E  E  E   
--------------------------|----------------------|------------------------|
-----1--0-----------------|----------------------|------------------------|
-----------0--2-----------|------------0---------|------------2-----------|
-----------------2--------|--0-------------------|--2------2-----2--------|
--3-----------------0--4--|----------------------|------------------3--0--|
--------------------------|-----------------3----|------------------------|


  H        S S S S S S S S    E  E  E  E  S S S S S S S S  
---------------------------|------------------------------|
---------------------------|------------------------0-1-3-|
-------------------------0-|--2-----------------0-2-------|
--0----------------0-2-3---|-----2--------0-2-3-----------|
-------------0-2-3---------|--------4--0------------------|
-----------3---------------|------------------------------|


  Q    Q    E  S S S S S S    Q    E  E  H           W                 
---------------0-----------|----------------------|-------------------|
--0--------------3-1-0-----|----------------------|-------------------|
-----------------------2-0-|-------------0--------|-------------------|
------------2--------------|--4----0--4-----------|-------------------|
-------2-------------------|----------------------|-------------------|
---------------------------|----------------------|-------------------|


  W                   W                   W                 
-------------------|-------------------|-------------------|
-------------------|-------------------|-------------------|
-------------------|-------------------|-------------------|
-------------------|-------------------|-------------------|
-------------------|-------------------|-------------------|
-------------------|-------------------|-------------------|


  E  E  E  Q    S S S S S S    S S S S S S S S E  Q    E   
----------------------------|-----------------------------|
----------------1-2-1-------|-----------------------------|
--------0--3----------3-1-0-|--1-3-1-0-----------------0--|
-----2----------------------|----------3-1-0--------------|
--3-------------------------|----------------3-2----------|
----------------------------|---------------------3-------|


  Q    Q    Q    Q       Q    Q    Q    Q       Q    Q    Q    Q     
----------------------|----------------------|----------------------|
--1----1----1----1----|--1----1----1----1----|--1----1----1----1----|
----------------------|----------------------|----------------------|
----------------------|----------------------|----------------------|
----------------------|----------------------|----------------------|
----------------------|----------------------|----------------------|


  Q    Q    S S S S S S S S    H        Q    Q      
----------------------------|---------------------||
--1----1--------------------|---------------------||
--------------------------0-|---------------------||
--------------------0-1-3---|---------------------||
--------------0-2-3---------|--3-------------3----||
------------3---------------|---------------------||
Login or Register to remove this ad.