Vegeta Vs. Frieza (Dragon Ball Z) Bass/Guitar Tab

Submitted: Oct 17, 2009 by Jacob31593 (Last updated: Apr 05, 2010)

4.666665
Average: 4.7 (3 votes)
Download | Listen
Game: Dragon Ball Z
Composer(s): Bruce Faulconer, Shunsuke Kikuchi
Style: Alternate picking, Transcription
Series: Dragon Ball

AutoScroll: Slow | Medium | Fast

Vegeta Vs. Frieza from Dragon Ball Z
Composed by Bruce Faulconer
Tabbed by Jacob31593
Oct. 17th 2009

This song plays during Vegeta's fight with Frieza on the planet Namek.
It was sort of put onto one guitar since none of us have any friends, but the gpro file contains a barely used second guitar and a bass guitar :). Here is the song in case the midi does not refresh any of your memories - http://www.youtube.com/watch?v=aRBm0LciSFg

148 BPM

     H        E  E  Q       E  Q    Q    E  Q       W                   Q    H.            
E||----------------------|-----------------------|-------------------|--------------------|
B||----------------------|-----------------------|-------------------|--------------------|
G||----------------------|--3--5-----------------|-------------------|--------------------|
D||--5--------L-----5----|----------4----3-------|-------------------|-------8------------|
A||--3--------L--3-------|------------------6----|-------------------|-------6------------|
E||--3--------L----------|-----------------------|-------------------|-------6------------|


  H        E  E  Q       E  Q    Q    E  Q       Q.     Q    Q    E     E  Q     Q     Q.      
----------------------|-----------------------|----------------------|------------------------|
----------------------|-----------------------|----------------------|------------------------|
----------------------|--3--5---------3--5----|---------5---------7--|--L-------10----12------|
--5--------------5----|----------4------------|---------3---------5--|--L--------8----10------|
--3-----------3-------|-----------------------|---------3---------5--|--L--------8----10------|
--3-------------------|-----------------------|----------------------|------------------------|


  E  E  E  Q    E  E  E     E  E  E  Q    E  E  E     E  E  E  Q    E  E  E   
-------------------------|-------------------------|-------------------------|
-------------------------|-------------------------|-------------------------|
--------7--8-------8--7--|--L-----7--8-------8-----|--------7--8-------8--7--|
-----5--5--6----6--6--5--|--L--5--5--6----6--6--8--|--L--5--5--6----6--6--5--|
--------5--6-------6--5--|--L-----5--6-------6--6--|--L-----5--6-------6--5--|
-------------------------|----------------------6--|--L----------------------|


  E  E  E  Q    E  E  E     E  E  E  Q    E  E  E     E  E  E  Q    E  E  E   
-------------------------|-------------------------|-------------------------|
-------------------------|-------------------------|-------------------------|
--L-----7--8-------8-----|--------7--8-------8--7--|--L-----7--8-------8-----|
--L--5--5--6----6--6--8--|--L--5--5--6----6--6--5--|--L--5--5--6----6--6--8--|
--L-----5--6-------6--6--|--L-----5--6-------6--5--|--L-----5--6-------6--6--|
----------------------6--|--L----------------------|----------------------6--|


  E  E  E  Q    E  E  E     E  E  E  Q    E  E  E     E  E  E  Q    E  E  E   
-------------------------|-------------------------|-------------------------|
-------------------------|-------------------------|-------------------------|
--------7--8-------8--7--|--L-----7--8-------8-----|--------7--8-------8--7--|
--L--5--5--6----6--6--5--|--L--5--5--6----6--6--8--|--L--5--5--6----6--6--5--|
--L-----5--6-------6--5--|--L-----5--6-------6--6--|--L-----5--6-------6--5--|
--L----------------------|----------------------6--|--L----------------------|


  E  E  E  Q    E  E  E     E  E  E  Q    E  E  E     E  E  E  Q    E  E  E   
-------------------------|-------------------------|-------------------------|
-------------------------|-------------------------|-------------------------|
--L-----7--8-------8-----|--------7--8-------8--7--|--L-----7--8-------8-----|
--L--5--5--6----6--6--8--|--L--5--5--6----6--6--5--|--L--5--5--6----6--6--8--|
--L-----5--6-------6--6--|--L-----5--6-------6--5--|--L-----5--6-------6--6--|
----------------------6--|--L----------------------|----------------------6--|


  E  E  E  Q    E  E  E     E  E  E  Q    E  E  E     E  E  E  Q    E  E  E   
-------------------------|-------------------------|-------------------------|
-------------------------|-------------------------|-------------------------|
--------7--8-------8--7--|--L-----7--8-------8-----|--------7--8-------8--7--|
--L--5--5--6----6--6--5--|--L--5--5--6----6--6--8--|--L--5--5--6----6--6--5--|
--L-----5--6-------6--5--|--L-----5--6-------6--6--|--L-----5--6-------6--5--|
--L----------------------|----------------------6--|--L----------------------|


  E  E  E  Q    E  E  E      Q.      Q.      Q       E   Q.      Q     Q       Q.     Q.     Q     
-------------------------|------------------------|-------------------------|---------------------|
-------------------------|------------------------|-------------------------|---------------------|
--L-----7--8-------8-----|------------------------|-------------------------|---------------------|
--L--5--5--6----6--6--8--|--10------11------10----|--L--11------10----11----|--6------6------5----|
--L-----5--6-------6--6--|---8-------9-------8----|--L---9-------8-----9----|--6------6------5----|
----------------------6--|------------------------|-------------------------|---------------------|


  E  Q.     Q    Q       H        E  E  Q       E  Q    Q    E  Q       W                 
----------------------|----------------------|-----------------------|-------------------|
----------------------|----------------------|-----------------------|-------------------|
----------------------|----------------------|--3--5-----------------|-------------------|
--L--5------4----4----|--5--------L-----5----|----------4----3-------|-------------------|
--L--5------4----4----|--3--------L--3-------|------------------6----|-------------------|
----------------------|--3--------L----------|-----------------------|-------------------|


  Q    H.              H        E  E  Q       E  Q    Q    E  Q       Q.     Q    Q    E   
--------------------|----------------------|-----------------------|----------------------|
--------------------|----------------------|-----------------------|----------------------|
--------------------|----------------------|--3--5---------3--5----|---------5---------7--|
-------8------------|--5--------------5----|----------4------------|---------3---------5--|
-------6------------|--3-----------3-------|-----------------------|---------3---------5--|
-------6------------|--3-------------------|-----------------------|----------------------|


  E  Q    H        E     H        E  E  Q       E  Q    Q    E  Q       W                 
----------------------|----------------------|-----------------------|-------------------|
----------------------|----------------------|-----------------------|-------------------|
--L-------------------|----------------------|--3--5-----------------|-------------------|
--L-------6--------L--|--5--------L-----5----|----------4----3-------|-------------------|
--L-------4--------L--|--3--------L--3-------|------------------6----|-------------------|
----------4--------L--|--3--------L----------|-----------------------|-------------------|


  Q    H.              H        E  E  Q       E  Q    Q    E  Q       H        H         
--------------------|----------------------|-----------------------|--------------------|
--------------------|----------------------|-----------------------|--------------------|
--------------------|----------------------|--3--5---------3--6----|--------------------|
-------8------------|--5--------------5----|----------4------------|--5-----------------|
-------6------------|--3-----------3-------|-----------------------|--5-----------------|
-------6------------|--3-------------------|-----------------------|--3-----------------|


Duration Legend
---------------
W - whole
H - half
Q - quarter
E - 8th
S - 16th

Tablature Legend
----------------
L - tied note

Login or Register to remove this ad.

7 comments on Vegeta Vs. Frieza

:D

I was just about to listen to my DBZ music videos but before I started to I came to check out the new gametabs updates and here, Vegeta Vs. Frieza. nice stuff.

i'll be uploading quite a few

i'll be uploading quite a few dbz tabs ^^

i dun understand this one.

4

i dun understand this one. you horrible tabber (just messin yacob lol.) but seriously im confused, gonna have to study your tabs lol

four stars? your blood will

four stars? your blood will paint the walls of our german classroom on monday

but anyway how is this tab hard to understand? it has numbers just like all other tabs

get on windows live damn you

get on windows live damn you you german class taking fool (lol)

im always on, silly

im always on, silly

horrible tabber.

5

horrible tabber.