Ads

Tapion's Theme (Dragon Ball Z) Guitar Tab

Submitted: Jun 19, 2012 by Max_depa

5
Average: 5 (2 votes)
Download | Listen
Game: Dragon Ball Z
Composer(s): Bruce Faulconer, Shunsuke Kikuchi
Style: Arrangement, Fingerstyle
Series: Dragon Ball

Click here for a video example.

AutoScroll: Slow | Medium | Fast
Tapion's Theme - Dragon Ball Z
Arranged by: Max_depa
Composed by: Bruce Faulconer 






     E  E  H        E   E      E   E   H.               E   E   H         Q     
E||--0--0--5-----------12--|--10------10------------|--------------------------|
B||------------------------|------13----------------|--10--12--13--------13----|
G||------------------------|------------------------|--------------------------|
D||------------------------|------------------------|--------------------------|
A||------------------------|------------------------|--------------------------|
E||------------------------|------------------------|--------------------------|


   E   E   H.              E  E  H        E   E      E   E   H.            
--10--------------------|--------5-----------12--|--10------10------------|
------13--12------------|--5--5------------------|------13----------------|
------------------------|------------------------|------------------------|
------------------------|------------------------|------------------------|
------------------------|------------------------|------------------------|
------------------------|------------------------|------------------------|


   E   E   Q.      E   Q        E   E   H.            
----------------------------|------------------------|
--10--12--13------13--12----|--10------10------------|
----------------------------|------12----------------|
----------------------------|------------------------|
----------------------------|------------------------|
----------------------------|------------------------|


  E  E  Q    S S E  E  E     E  E  Q    E  E  Q       E  E  H        Q     
-------------0---0-----0--|------------------------|----------------------|
---------------3----------|--3--1--3---------------|-----0--1--------1----|
--------2--------1--2-----|------------------------|--2-------------------|
--2--2-------2------------|-------------0--2--4----|----------------------|
--------------------------|------------------------|----------------------|
--------------------------|------------------------|----------------------|


  E  E  Q    E  E  E  E     E  E  Q    S S Q    E     E  E  Q    E  E  Q     
-------------------------|-------------0---0----0--|--------2---------------|
--3--1--0----------------|---------------3---------|--3--1--3---------------|
-------------------------|--------2----------------|------------------------|
----------------0--4--4--|--2--0--2----------------|-------------0--2--4----|
-------------2-----------|-------------------------|------------------------|
-------------------------|-------------------------|------------------------|


  E  E  Q.     E  Q       E  E  Q    Q    Q       E  E  E  E  S S E  E  E   
-----------------------|-----------------------|--------------0---0-----0--|
-----0--1------1--0----|-----------------------|----------------3----------|
--2-----2--------------|--2--0--2--------------|--------2------------2-----|
-----------------------|-------------2---------|--2--2-----2--0------0--2--|
-----------------------|------------------0----|--------0---------3--------|
-----------------------|-----------------------|--0--0---------------------|


  E  E  E  E  E  E  Q       E  E  E  E  E  E  E  E     E  E  E  E  E  E  E  E   
-------------------------|--------------------------|--------------------------|
--3--1--3-----0--1--3----|-----0--1-----------1-----|--3--1--0-----------0-----|
-----------2-------------|--2--------2-----1--2--2--|-----------1-----1--------|
--0-----0-----0--2--4----|--------------2-----------|--0-----------2--0--4--4--|
-----3-------------------|--0--2--3-----------3-----|-----3--2-----2-----------|
-------------------------|--------------------------|--------------------------|


  E  E  E  E  S S E  E  E     E  E  E  E  E  E  Q     
--------------0---0-----0--|--------2----------------|
----------------3----------|--3--1--3-----0--1--3----|
--------2------------------|-----------2-------------|
--2--0--2--2--0------0--2--|--0-----0-----0--2--4----|
--------0---------3--------|-----3-------------------|
--0--0---------------------|-------------------------|


  E  E  E  E  E  E  E  E     E  E  E  E  E  E  Q       W                  
--------------------------|-------------------------|-------------------||
-----0--1--------1--0-----|--1--0-------------------|-------------------||
--2-----2--2--------4-----|--2--0--2-----------2----|--L----------------||
--------------2--------2--|-----------2--0----------|-------------------||
--0--2--3--------3--2-----|--0-----0--------3--0----|--L----------------||
--------------------------|-----3-------------------|-------------------||




Duration Legend
---------------
W - whole
H - half
Q - quarter
E - 8th
S - 16th
T - 32nd
X - 64th
. - note dotted
|-n-|  - n-tuplets


Tablature Legend
----------------
L - tied note
x - dead note
g - grace note
(n) - ghost note
> - accentuded note
NH - natural harmonic
AH - artificial harmonic
TH - tapped harmonic
SH - semi harmonic
PH - pitch harmonic
h - hammer on
p - pull off
b - bend
br - bendRelease
pb - preBend
pbr - preBendRelease
brb - bendReleaseBend
\n/ - tremolo bar dip
\n - tremolo bar dive
-/n - tremolo bar Release up
/n\ - tremolo bar inverted dip
/n - tremolo bar return
-\n - tremolo bar Release down
S - shift slide
s - legato slide
/ -  slide into from below or out of upwards
\ -  slide into from above or out of downwards
~ - vibrato
W - wide vibrato
tr - trill
TP - tremolo picking
T - tapping
S - slap
P - pop
< - fade in
^ - brush up
v - brush down
Login or Register to remove this ad.