Ads

Hikari no Willpower (Dragon Ball Z) Guitar Tab

Submitted: Oct 31, 2017 by LeviKazu

5
Average: 5 (2 votes)
Download | Listen
Game: Dragon Ball Z
Composer(s): Bruce Faulconer, Shunsuke Kikuchi
Style: Transcription
Series: Dragon Ball

This song is also called Future Trunks Theme

AutoScroll: Slow | Medium | Fast
Dragon Ball Z
Hikari no Willpower - "Future Trunks Theme"
Composer: Kenji Yamamoto
Tab by: LeviKazu
30.10.2017

Piano:

E||----------------------------------------------|--------------------------------------------|
B||----------------------------------------------|------------------------5---------------7---|
G||--4-6-7--4-6-7--4-6-7-7-6-4--6----------------|--4-6-7--4-6-7--4-6-7-7---7--6----7-6-4---4-|
D||-------------------------------7---7--5-7-4---|--------------------------------------------|
A||---------------------------------7------------|--------------------------------------------|
E||----------------------------------------------|--------------------------------------------|

Guitar

E||----------------------|---------------------|
B||----------------------|---------------------|
G||--10-9-7--------------|--7-9----------------|x2
D||--8--7-5-9~~~~--------|--5-7-7-9~~~~--------|
A||---------7~~~~--------|------5-7~~~~--------|
E||----------------------|---------------------|

Vocals

Verse 1

E||------------------------------------------------------------------|
B||----------------------------12------------------------------------|
G||--11-11----9------11------9----11-9-11------11-9--11--9~----------|
D||--------12---12--------12---------------9~---------------11-9--7--|
A||------------------------------------------------------------------|
E||------------------------------------------------------------------|

E||------------------------------------------------------------------|
B||----------------------------12-------------10--12--15-14-12-14----|
G||--11-11----9------11------9----11-9-11/12-------------------------|
D||--------12---12--------12-----------------------------------------|
A||------------------------------------------------------------------|
E||------------------------------------------------------------------|

E||------------------------------------------------------------------|----------------------------------|
B||--10~--10-10-12-----------------------------10--------------------|--10~--10-10-12-------------------|
G||----------------13-11-9~--9-9-11/12~--12-12----11-9-7-------------|----------------13-11-9~--9-9-11--|
D||------------------------------------------------------------------|----------------------------------|
A||------------------------------------------------------------------|----------------------------------|
E||------------------------------------------------------------------|----------------------------------|

Verse 2

E||------------------------------------------------------------------|
B||----------------------------12------------------------------------|
G||--11-11----9------11------9----11-9-11------11-9--11--9~----------|
D||--------12---12--------12---------------9~---------------11-9--7--|
A||------------------------------------------------------------------|
E||------------------------------------------------------------------|

E||------------------------------------------------------------------|
B||----------------------------12-------------10--12--15-14-12-14----|
G||--11-11----9------11------9----11-9-11/12-------------------------|
D||--------12---12--------12-----------------------------------------|
A||------------------------------------------------------------------|
E||------------------------------------------------------------------|

E||------------------------------------------------------------------|--------------------------------------------|
B||--10~--10-10-12-----------------------------10--------------------|--10~--10-10-12-----------------------------|
G||----------------13-11-9~--9-9-11/12~--12-12----11-9-7-------------|----------------13-11-9~--9-9-11~--11-11-13~|
D||------------------------------------------------------------------|--------------------------------------------|
A||------------------------------------------------------------------|--------------------------------------------|
E||------------------------------------------------------------------|--------------------------------------------|

Chorus

E||------------------------------------------------------------------|
B||--14-16-17--14-16-17--14-16-17-17-16-14--16-----------------------|
G||--------------------------------------------16---16--14-16-13-----|
D||-----------------------------------------------16-----------------|
A||------------------------------------------------------------------|
E||------------------------------------------------------------------|

E||------------------------------------------------------------------|
B||--14-16-17--14-16-17--14-16-17-17/19--17--16----------------------|
G||------------------------------------------------------------------|
D||------------------------------------------------------------------|
A||------------------------------------------------------------------|
E||------------------------------------------------------------------|

E||------------------------------------------------------------------|
B||--14-16-17--14-16-17--14-16-17-17-16-14--16-----------------------|
G||--------------------------------------------16---16--14-16-13-----|
D||-----------------------------------------------16-----------------|
A||------------------------------------------------------------------|
E||------------------------------------------------------------------|

E||------------------------------------------------------------------|
B||--14-16-17--14-16-17--14-16-17-17/19--17--16----17-16-14----14~~--|
G||---------------------------------------------------------16-------|
D||------------------------------------------------------------------|
A||------------------------------------------------------------------|
E||------------------------------------------------------------------|





Login or Register to remove this ad.

1 comment on Hikari no Willpower

Dangit got the Teamfourstar

Dangit got the Teamfourstar version of this song stuck in my head now ><