Ads

Gohan's Anger (Dragon Ball Z) Guitar Tab

Submitted: Jun 23, 2016 by JordanVS

5
Average: 5 (5 votes)
Download | Listen
Game: Dragon Ball Z
Composer(s): Bruce Faulconer, Shunsuke Kikuchi
Style: Arrangement, Fingerstyle
Series: Dragon Ball

This song is also called Mystical Gohan / Gohan Angers

AutoScroll: Slow | Medium | Fast
Gohan's Anger                               
Mystical Gohan / Gohan Angers
Dragon Ball Z
Bruce Faulconer
JordanVS

*Capo on the 4th fret
Tempo : 105 ~ 4/4

This was based on camman007 & K1w1Fu piano arragement.
Truth be told I don't know the actual name of this tune nor the moment it plays in the anime,
I only remember this as the Forest Theme from DBZ : Buu's Fury on the GBA.



     E.  S S S E.  E  S E  E     E.  S S S E.  E  S E  E     E.  S S S E.  E  S E  E   
E||--0---0-----3---0----3--0--|--0---0-----3---0----3--0--|--0---0-----3---0----3--0--|
B||--1---1-----1---1----1--1--|--1---1-----1---1----1--1--|--0---0-----0---0----0--0--|
G||---------------------------|---------------------------|---------------------------|
D||---------------------------|---------------------------|---------------------------|
A||--0-----L-0--------0----0--|--0-----L-0--------0----0--|---------------------------|
E||---------------------------|---------------------------|--3-----L-3--------3----3--|


  E.  S S S E.  E  S E  E     E.  S S S E.  E  S E  E     E.  S S S E.  E  S E  E   
--0---0-----3---0----3--0--|--0---0-----3---0----3--0--|--0---0-----3---0----3--0--|
--0---0-----0---0----0--0--|--1---1-----1---1----1--1--|--1---1-----1---1----1--1--|
---------------------------|---------------------------|---------------------------|
---------------------------|---------------------------|---------------------------|
---------------------------|--0-----L-0--------0----0--|--0-----L-0--------0----0--|
--3-----L-3--------3----3--|---------------------------|---------------------------|


  E.  S S S E.  E  S E  E     E.  S S S E.  E  S E  E     E.  S S S E.  E  S E  E   
--0---0-----3---0----3--0--|--0---0-----3---0----3--0--|--0---0-----3---0----3--0--|
--0---0-----0---0----0--0--|--0---0-----0---0----0--0--|---------------------------|
---------------------------|---------------------------|--2---2-----2---2----2--2--|
---------------------------|---------------------------|---------------------------|
---------------------------|---------------------------|---------------------------|
--3-----L-3--------3----3--|--3-----L-3--------3----3--|--1-----L-1--------1----1--|


  E.  S S S E.  E  S E  E     E.  S S S E.  E  S E  E     E.  S S S E.  E  S E  E   
--0---0-----3---0----3--5--|--0---0-----3---0----3--0--|--0---0-----3---0----3--0--|
---------------------------|--0---0-----0---0----0--0--|--0---0-----0---0----0--0--|
--2---2-----2---2----2--2--|---------------------------|---------------------------|
---------------------------|---------------------------|---------------------------|
---------------------------|---------------------------|---------------------------|
--1-----L-1--------1----1--|--3-----L-3--------3----3--|--3-----L-3--------3----3--|


  E.  S S S E.  E  S E  E     E.  S S S E.  E  S E  E     E.  S S S E.  E  S E  E     E.  E.  E  Q    E  E   
--0---0-----3---0----3--0--|--0---0-----3---0----3--0--|--0---0-----3---0----3--0--|--0---0-----------------|
--1---1-----1---1----1--1--|--0---0-----0---0----0--0--|--1---1-----1---1----1--1--|--0---0---3-------3-----|
---------------------------|---------------------------|---------------------------|----------4-------4-----|
---------------------------|---------------------------|---------------------------|------------------------|
--0-----L-0--------0----0--|---------------------------|--0-----L-0--------0----0--|------------------------|
---------------------------|--3-----L-3--------3----3--|---------------------------|--3---3---3-------3-----|


  S S  S S S S S S S S S S S S S  S    S S  S S S S S S S S  S S S S  S S  
----1p-0-------------------3---1p-0-|----1p-0-------------1p-0---3-1p-0---|
---------0-3---0-----3-0------------|---------0-3---0----------0----------|
--2----------2---0-2-----0---0------|--2----------2---0-2---------------0-|
------------------------------------|-------------------------------------|
--0------------0-----------0---0----|-------------------------------------|
------------------------------------|--3------------3------------3----3---|


  S S  S S S S S S S S S S S S S  S    S S  S S S S S S S S  S S S S  S S  
----1p-0-------------------3---1p-0-|----1p-0-------------1p-0---3-1p-0---|
---------0-3---0-----3-0------------|---------0-3---0----------0----------|
--2----------2---0-2-----0---0------|--2----------2---0-2---------------0-|
------------------------------------|-------------------------------------|
--0------------0-----------0---0----|-------------------------------------|
------------------------------------|--3------------3------------3----3---|


  S S  S S S S S S S S S S S S S  S    S S  S S S S S S S S  S S S S  S S  
----1p-0-------------------3---1p-0-|----1p-0-------------1p-0---3-1p-0---|
---------0-3---0-----3-0------------|---------0-3---0----------0----------|
--2----------2---0-2-----0---0------|--2----------2---0-2---------------0-|
------------------------------------|-------------------------------------|
------------------------------------|-------------------------------------|
--1------------1-----------1---1----|--3------------3------------3----3---|


  S S  S S S S S S S S S S S S S  S    S S  S S S S S S S S  S S S S  S S    W                 
----1p-0-------------------3---1p-0-|----1p-0-------------1p-0---3-1p-0---|-------------------|
---------0-3---0-----3-0------------|---------0-3---0----------0----------|-------------------|
--2----------2---0-2-----0---0------|--2----------2---0-2---------------0-|--L----------------|
------------------------------------|-------------------------------------|-------------------|
------------------------------------|-------------------------------------|-------------------|
--1------------1-----------1---1----|--3------------3------------3----3---|--L----------------|


  H.           E  E     H.           E  E     H.           E  E     H.           E  E     H.           E  E   
--0------------L--0--|--0------------L--0--|--0------------L--0--|--0------------L--0--|--0------------------|
--1------------L--1--|--0------------L--0--|--1------------L--1--|--0------------L--0--|---------------------|
---------------------|---------------------|---------------------|---------------------|--2------------------|
---------------------|---------------------|---------------------|---------------------|---------------------|
--0------------L--0--|---------------------|--0------------L--0--|---------------------|---------------------|
---------------------|--3------------L--3--|---------------------|--3------------L--3--|--1------------L--1--|


                                                                    ^                                     
  H.           E  E     H.           E  E     H.           E  E     W                   W                 
--L------------L--0--|--0------------------|--L------------L--0--|--0----------------|--L----------------|
---------------------|--0------------------|--L------------L--0--|--1----------------|--L----------------|
--L------------L--2--|---------------------|---------------------|--2----------------|--L----------------|
---------------------|---------------------|---------------------|--2----------------|--L----------------|
---------------------|---------------------|---------------------|--0----------------|--L----------------|
--L------------L--1--|--3------------L--3--|--L------------L--3--|-------------------|-------------------|


  W                  
--L----------------||
--L----------------||
--L----------------||
--L----------------||
--L----------------||
-------------------||




Duration Legend
---------------
W - whole
H - half
Q - quarter
E - 8th
S - 16th
T - 32nd
X - 64th
. - note dotted
|-n-|  - n-tuplets


Tablature Legend
----------------
L - tied note
x - dead note
h - hammer on
p - pull off
^ - brush up
v - brush down
Login or Register to remove this ad.

4 comments on Gohan's Anger

Great song and arrangement

Great song and arrangement Jordan; in the anime this plays when Gohan first turns Super Saiyan 2.

Ah one of my fav themes from

Ah one of my fav themes from DBZ, excellent work Jordan think I'm going to metal cover this at some point will definitely be using your tab as a foundation. :)

nice!!

nice!!

I liked this one a lot =)

5

I liked this one a lot =)