Ads

Funimation DVD Opening (Dragon Ball Z) Guitar Tab

Submitted: Jul 01, 2010 by El_Nombre (Last updated: Sep 23, 2012)

4.833335
Average: 4.8 (6 votes)
Download | Listen
Game: Dragon Ball Z
Composer(s): Bruce Faulconer, Shunsuke Kikuchi
Style: Transcription
Series: Dragon Ball

AutoScroll: Slow | Medium | Fast
Funimation Opening Theme
Dragonball Z (Funimation DVDs)
Composer: Mark Menza
Tabber: El_Nombre
Date: 2008 (Update 2012)


e|-5-5-5-5-5-5-5-7-7-7-7-7|-7-7-7\-----------------|------------------------|
B|-5-5-5-5-5-5-5-5-5-5-5-5|-5-5-5\-----------------|------------------------|
G|------------------------|------------------------|-5----------------------|
D|------------------------|------------------------|-5---5------------------|
A|------------------------|----------7-7-7-7-7-7-7-|-3---5------------------|
E|------------------------|----------5-5-5-5-5-5-5-|-----3------------------|


e|------------------------|------------------------|------------------------|
B|------------------------|------------------------|------------------------|
G|----6-7-9-7-6-----------|-6-7--------5-7---------|------------------------|
D|-5h7----------9-7--5h7--|-----7--5h7-----5~---7/-|------------------------|
A|------------------------|------------------------|------------------------|
E|------------------------|------------------------|------------------------|


e|------------------------|------------------------|------------------------|
B|------------------------|--------5---------------|------------------------|
G|----6-7-9-7-6-----------|-6-7------7-5-4h5p4\----|------------------------|
D|-5h7----------9-7--5h7--|-----7------------------|------------------------|
A|------------------------|------------------------|------------------------|
E|------------------------|------------------------|------------------------|


e|---5-7-7b9r--5-5--7-9~--|----7-9-9b10r--7-5-5\---|-5-7-7b9r--5-5----------|
B|-7----------------------|-10---------------------|----------------7-5-----|
G|------------------------|------------------------|------------------------|
D|------------------------|------------------------|------------------------|
A|------------------------|------------------------|------------------------|
E|------------------------|------------------------|------------------------|


e|-----5---7-7b9r-5-5-----|------------------------|------------------------|
B|-5-7--------------------|------------------------|------------------------|
G|------------------------|------------------------|------------------------|
D|------------------------|------------------------|------------------------|
A|------------------------|------------------------|------------------------|
E|------------------------|------------------------|------------------------|


e|-5-5-5-5-5-5-5-7-7-7-7-7|-7-7-7-7--5-5-5-5-5-5-5-|-7-7-7-7-7-7-7-7\-------|
B|-5-5-5-5-5-5-5-5-5-5-5-5|-5-5-5-5--5-5-5-5-5-5-5-|-5-5-5-5-5-5-5-5\-------|
G|------------------------|------------------------|------------------------|
D|------------------------|------------------------|------------------------|
A|------------------------|------------------------|------------------------|
E|------------------------|------------------------|------------------------|


e|------------------------|------------------------|------------------------|
B|------------------------|------------------------|------------------------|
G|-----------------5------|-----------------5------|------------------------|
D|-----------------5---5--|-----------------5---5--|------------------------|
A|-7-7-7-7-7-7-7---3---5--|-7-7-7-7-7-7-7---3---5--|------------------------|
E|-5-5-5-5-5-5-5-------3--|-5-5-5-5-5-5-5-------3--|------------------------|


e|------------------------|------------------------|------------------------|
B|------------------------|------------------------|------------------------|
G|----6-7-9-7-6-----------|-6-7--------5-0h7-------|------------------------|
D|-5h7----------9-7--5h7--|-----7--5h7-------0h5---|-5h7/-------------------|
A|------------------------|------------------------|------------------------|
E|------------------------|------------------------|------------------------|


e|------------------------|--------0-----0---------|------------------------|
B|------------------------|--------5-7-5-0---------|------------------------|
G|----6-7-9-7-6-----------|-6-7------7-5-4\--------|------------------------|
D|-5h7----------9-7--5h7--|-----7------------------|------------------------|
A|------------------------|------------------------|------------------------|
E|------------------------|------------------------|------------------------|


e|---5--7-7b9r--5-5-7-9~--|----7-9-9b10r--7-5-5\---|--5-7-7b9r--5-5---------|
B|-7----------------------|-10---------------------|----------------7-5-----|
G|------------------------|------------------------|------------------------|
D|------------------------|------------------------|------------------------|
A|------------------------|------------------------|------------------------|
E|------------------------|------------------------|------------------------|


e|-----5---7-9-12-12~-----|------------------------|------------------------|
B|-5-7-----------------10~|10~10~10~10~10~10~10~10~10~10~10~10~10~10~10/----|
G|------------------------|------------------------|------------------------|
D|------------------------|------------------------|------------------------|
A|------------------------|------------------------|------------------------|
E|------------------------|------------------------|------------------------|


e|------9-10-12-10-9------|------9-10--------8-10--|------------------------|
B|-8h10--------------12-10|-8h10-----10-8h10------8|-8h10~------------------|
G|------------------------|------------------------|------------------------|
D|------------------------|------------------------|------------------------|
A|------------------------|------------------------|------------------------|
E|------------------------|------------------------|------------------------|


e|------9-10-12-10-9------|------9-10-----10-12-15-|-17~--------------------|
B|-8h10--------------12-10|-8h10-----10------------|------------------------|
G|------------------------|------------------------|------------------------|
D|------------------------|------------------------|-------2-1-0------------|
A|------------------------|------------------------|-------------3-2--------|
E|------------------------|------------------------|-----------------3---5~~|


e|------------------------|
B|--8~~-------------------|
G|--7~~-------------------|
D|--6~~-------------------|
A|--7~~-------------------|
E|------------------------|
Login or Register to remove this ad.

4 comments on Funimation DVD Opening

awesome

Awesome tab but there was one slight problem I saw.

On bar 4, 7,22, and 24 you have:

e|------------------------|
B|------------------------|
G|----6-7-9-7-6-----------|
D|-5h7----------7-5--5h7--|
A|------------------------|
E|------------------------|

When I was playing while the song was in the background, I realized a small difference in pitch near the end. I found that this fits in better:

e|------------------------|
B|------------------------|
G|----6-7-9-7-6-----------|
D|-5h7----------9-7--5h7--|
A|------------------------|
E|------------------------|

I only just realized this,

5

I only just realized this, it's fixed now.

e|---5-7-7b9r--5-5--7-9~--|--

e|---5-7-7b9r--5-5--7-9~--|----7-9-9b10r--7-5-5\---|-5-7-7b9r--5-5----------|
B|-7----------------------|-10---------------------|----------------7-5-----|
G|------------------------|------------------------|------------------------|
D|------------------------|------------------------|------------------------|
A|------------------------|------------------------|------------------------|
E|------------------------|------------------------|------------------------|

can you please explain to me what is going on in this section?
because i have absolutely no idea what the "b" or "r" mean.

b - bend r - release Play e7,

b - bend
r - release

Play e7, then bend the string up to the pitch of e9. To release you just unbend back to the original position so the pitch is e7 again.