Ads

Options (Dragon Ball Z: Budokai) Bass/Guitar Tab

Submitted: May 09, 2011 by Jacob31593

0
Download | Listen
Game: Dragon Ball Z: Budokai
Composer(s): Kenji Yamamoto (DBZ)
Style: 2 or more instruments, Alternate picking, Arrangement, Sweep picking, Transcription
Series: Dragon Ball

AutoScroll: Slow | Medium | Fast

Options from DBZ Budokai
Composed by Kenji Yamamoto
Tabbed by Jacob31593
May 9th 2011

Neat song :o
160 BPM

Lead

E||-------|-------|-------|-------||--------|-------|-------|-------|-------|-------|-------|-------|-------|
B||-------|-------|-------|-------||--------|-------|-------|-------|-------|-------|-------|-------|-------|
G||-------|-------|-------|-------||*-------|-------|-------|-------|-------|-------|-------|-------|-------|
D||-------|-------|-------|-------||*-------|-------|-------|-------|-------|-------|-------|-------|-------|
A||-------|-------|-------|-------||--------|-------|-------|-------|-------|-------|-------|-------|-------|
E||-------|-------|-------|-------||--------|-------|-------|-------|-------|-------|-------|-------|-------|


                  Q    Q    E  E   S  S  S  S     Q.      Q.      Q       H        Q.      E   
-------|-------|---------------------------10-|--12------10------------|----------------------|
-------|-------|------------------10-12-13----|------------------10----|--L--------L------13--|
-------|-------|------------------------------|------------------------|----------------------|
-------|-------|------------------------------|------------------------|----------------------|
-------|-------|------------------------------|------------------------|----------------------|
-------|-------|------------------------------|------------------------|----------------------|


   Q.      Q.      Q       H        H            Q.      Q.      Q       H        Q.      E   
--10--------------------|--------------------|--12------10------------|------------------10--|
----------12------------|--------------------|------------------10----|--L--------L----------|
------------------12----|--L--------L--------|------------------------|----------------------|
------------------------|--------------------|------------------------|----------------------|
------------------------|--------------------|------------------------|----------------------|
------------------------|--------------------|------------------------|----------------------|


   |--3--|   |--3--|                                         
   Q     E   Q     E   Q     E  E        W                 4x
-----------------------------------|-----------------------||
--12----13--12----13--12-----------|-----------------------||
----------------------------12--9--|--9g12----------------*||
-----------------------------------|----------------------*||
-----------------------------------|-----------------------||
-----------------------------------|-----------------------||

Lead Harmony


E||-------|-------|-------|-------||--------|-------|-------|-------|-------|-------|-------|-------|-------|
B||-------|-------|-------|-------||--------|-------|-------|-------|-------|-------|-------|-------|-------|
G||-------|-------|-------|-------||*-------|-------|-------|-------|-------|-------|-------|-------|-------|
D||-------|-------|-------|-------||*-------|-------|-------|-------|-------|-------|-------|-------|-------|
A||-------|-------|-------|-------||--------|-------|-------|-------|-------|-------|-------|-------|-------|
E||-------|-------|-------|-------||--------|-------|-------|-------|-------|-------|-------|-------|-------|


                  Q    Q    E  E  S S  S S    Q.     Q.     Q       H        Q.      E   
-------|-------|---------------------------|---------------------|----------------------|
-------|-------|---------------------------|---------------------|----------------------|
-------|-------|-------------------------7-|--9------7-----------|----------------------|
-------|-------|------------------7-9-10---|----------------7----|--L--------L------10--|
-------|-------|---------------------------|---------------------|----------------------|
-------|-------|---------------------------|---------------------|----------------------|


  Q.     Q.      Q       H        H           Q.     Q.     Q       H        Q.     E   
----------------------|--------------------|---------------------|---------------------|
----------------------|--------------------|---------------------|---------------------|
--7-------------------|--------------------|--9------7-----------|------------------7--|
---------9------------|--------------------|----------------7----|--L--------L---------|
----------------10----|--L--------L--------|---------------------|---------------------|
----------------------|--------------------|---------------------|---------------------|


  |--3--|  |--3--|                                        
  Q     E  Q     E  Q     E  E        W                 4x
--------------------------------|-----------------------||
--------------------------------|-----------------------||
--------------------------------|----------------------*||
--9----10--9----10--9-----------|----------------------*||
-------------------------10--7--|--7g10-----------------||
--------------------------------|-----------------------||

Rhythm

       Q    Q    E   E   E  E   
E||-------|-------|-------|-------||--------|-------|-------|-------|---------------17--17-----|
B||-------|-------|-------|-------||--------|-------|-------|-------|--------------------------|
G||-------|-------|-------|-------||*-------|-------|-------|-------|---------------14--14-----|
D||-------|-------|-------|-------||*-------|-------|-------|-------|--------------------------|
A||-------|-------|-------|-------||--------|-------|-------|-------|--------------------------|
E||-------|-------|-------|-------||--------|-------|-------|-------|--------------------------|


   E  E  E   E  E  E  E  E     E  E  E  E  E   E   E  E      E  E  E  E  E  E  E  E   
--20--------17--------------|-----------------19--19-----|--15-----------------------|
----------------------------|----------------------------|---------------------------|
--17--------14--------------|-----------------16--16-----|--12-----------------------|
----------------------------|----------------------------|---------------------------|
----------------------------|----------------------------|---------------------------|
----------------------------|----------------------------|---------------------------|


  Q    Q    E   E   E  E      E  E  E   E  E  E  E  E     E  E  E  E  E   E   E  E   
---------------17--17-----|--20--------17--------------|-----------------19--19-----|
--------------------------|----------------------------|----------------------------|
---------------14--14-----|--17--------14--------------|-----------------16--16-----|
--------------------------|----------------------------|----------------------------|
--------------------------|----------------------------|----------------------------|
--------------------------|----------------------------|----------------------------|


   E  E  E   E  E  E  E  E     Q    Q    E   E   E  E      E  E  E   E  E  E  E  E   
--15--------19--------------|---------------17--17-----|--20--------17--------------|
----------------------------|--------------------------|----------------------------|
--12--------16--------------|---------------14--14-----|--17--------14--------------|
----------------------------|--------------------------|----------------------------|
----------------------------|--------------------------|----------------------------|
----------------------------|--------------------------|----------------------------|


  E  E  E  E  E   E   E  E      E  E  E  E  E  E  E  E     Q    Q    E   E   E  E   
-----------------19--19-----|--15-----------------------|---------------17--17-----|
----------------------------|---------------------------|--------------------------|
-----------------16--16-----|--12-----------------------|---------------14--14-----|
----------------------------|---------------------------|--------------------------|
----------------------------|---------------------------|--------------------------|
----------------------------|---------------------------|--------------------------|


   E  E  E   E  E  E  E  E     E  E  E  E  E   E   E  E      E  E  E   E  E  E  E  E   4x
--20--------17--------------|-----------------19--19-----|--15--------19---------------||
----------------------------|----------------------------|-----------------------------||
--17--------14--------------|-----------------16--16-----|--12--------16--------------*||
----------------------------|----------------------------|----------------------------*||
----------------------------|----------------------------|-----------------------------||
----------------------------|----------------------------|-----------------------------||

Dootmobile

     PM PM       PM             PM       PM       PM       PM PM       PM           
     E  E  E  E  E  E  E  E     E  E  E  E  E  E  E  E     E  E  E  E  E  E  E  E   
E||--------------------------|--------------------------|--------------------------|
B||--------------------------|--------------------------|--------------------------|
G||--------------------------|--------------------------|--------------------------|
D||--7--7--------7-----------|--7--------5--------7-----|--5--5--------5-----------|
A||--------------------------|--------------------------|--------------------------|
E||--------------------------|--------------------------|--------------------------|


  PM       PM                     PM       PM             PM       PM       PM          PM       PM           
  E  E  E  E  E  E  E  E       E  E  E  E  E  E  E  E     E  E  E  E  E  E  E  E     E  E  E  E  E  E  E  E   
--------------------------||---------------------------|--------------------------|--------------------------|
--------------------------||---------------------------|--------------------------|--------------------------|
--------------------------||*--------------------------|--------------------------|--------------------------|
--5-----------------------||*--7--7--------7-----------|--7--------5--------7-----|-----5--------5-----------|
-----------7--------------||---------------------------|--------------------------|--------------------------|
--------------------------||---------------------------|--------------------------|--------------------------|


  PM       PM                   PM       PM             PM       PM       PM          PM       PM           
  E  E  E  E  E  E  E  E     E  E  E  E  E  E  E  E     E  E  E  E  E  E  E  E     E  E  E  E  E  E  E  E   
--------------------------|--------------------------|--------------------------|--------------------------|
--------------------------|--------------------------|--------------------------|--------------------------|
--------------------------|--------------------------|--------------------------|--------------------------|
--5-----------------------|-----7--------7-----------|--7--------5--------7-----|-----5--------5-----------|
-----------7--------------|--------------------------|--------------------------|--------------------------|
--------------------------|--------------------------|--------------------------|--------------------------|


  PM       PM                PM PM       PM             PM       PM       PM          PM       PM           
  E  E  E  E  E  E  E  E     E  E  E  E  E  E  E  E     E  E  E  E  E  E  E  E     E  E  E  E  E  E  E  E   
--------------------------|--------------------------|--------------------------|--------------------------|
--------------------------|--------------------------|--------------------------|--------------------------|
--------------------------|--------------------------|--------------------------|--------------------------|
--5-----------------------|--7--7--------7-----------|--7--------5--------7-----|-----5--------5-----------|
-----------7--------------|--------------------------|--------------------------|--------------------------|
--------------------------|--------------------------|--------------------------|--------------------------|


  PM       PM                   PM       PM             PM       PM       PM          PM       PM           
  E  E  E  E  E  E  E  E     E  E  E  E  E  E  E  E     E  E  E  E  E  E  E  E     E  E  E  E  E  E  E  E   
--------------------------|--------------------------|--------------------------|--------------------------|
--------------------------|--------------------------|--------------------------|--------------------------|
--------------------------|--------------------------|--------------------------|--------------------------|
--5-----------------------|-----7--------7-----------|--7--------5--------7-----|-----5--------5-----------|
-----------7--------------|--------------------------|--------------------------|--------------------------|
--------------------------|--------------------------|--------------------------|--------------------------|


  PM       PM                   PM       PM             PM       PM       PM          PM       PM           
  E  E  E  E  E  E  E  E     E  E  E  E  E  E  E  E     E  E  E  E  E  E  E  E     E  E  E  E  E  E  E  E   
--------------------------|--------------------------|--------------------------|--------------------------|
--------------------------|--------------------------|--------------------------|--------------------------|
--------------------------|--------------------------|--------------------------|--------------------------|
--5-----------------------|-----7--------7-----------|--7--------5--------7-----|-----5--------5-----------|
-----------7--------------|--------------------------|--------------------------|--------------------------|
--------------------------|--------------------------|--------------------------|--------------------------|


  PM       PM                
  E  E  E  E  E  E  E  E   4x
---------------------------||
---------------------------||
--------------------------*||
--5-----------------------*||
-----------7---------------||
---------------------------||

The Other Rhythm

     W                   H        E  E  E  E     W                   Q.      E  E   E  E  E   
E||-------------------|-----------------------|-------------------|--------------------------|
B||-------------------|-----------------------|-------------------|--------------------------|
G||--9----------------|--L--------L--9-----7--|--L----------------|--L------12-----10-----9--|
D||--7----------------|--L--------L--7-----5--|--L----------------|--L------10------8-----7--|
A||-------------------|-----------------------|-------------------|--------------------------|
E||-------------------|-----------------------|-------------------|--------------------------|


    W                   H        E  E  E  E     W                   H         H           W                 
|--------------------|-----------------------|-------------------|---------------------|-------------------|
|--------------------|-----------------------|-------------------|---------------------|-------------------|
|*--L----------------|--L--------L--9-----7--|--L----------------|--L--------12--------|--9----------------|
|*--L----------------|--L--------L--7-----5--|--L----------------|--L--------10--------|--7----------------|
|--------------------|-----------------------|-------------------|---------------------|-------------------|
|--------------------|-----------------------|-------------------|---------------------|-------------------|


  H        E  E  E  E     W                   Q.      E  E   E  E  E     W                 
-----------------------|-------------------|--------------------------|-------------------|
-----------------------|-------------------|--------------------------|-------------------|
--L--------L--9-----7--|--L----------------|--L------12-----10-----9--|--L----------------|
--L--------L--7-----5--|--L----------------|--L------10------8-----7--|--L----------------|
-----------------------|-------------------|--------------------------|-------------------|
-----------------------|-------------------|--------------------------|-------------------|


  H        E  E  E  E     W                   H         H           W                   H        E  E  E  E   
-----------------------|-------------------|---------------------|-------------------|-----------------------|
-----------------------|-------------------|---------------------|-------------------|-----------------------|
--L--------L--9-----7--|--L----------------|--L--------12--------|--9----------------|--L--------L--9-----7--|
--L--------L--7-----5--|--L----------------|--L--------10--------|--7----------------|--L--------L--7-----5--|
-----------------------|-------------------|---------------------|-------------------|-----------------------|
-----------------------|-------------------|---------------------|-------------------|-----------------------|


  W                   Q.      E  E   E  E  E     W                   H        E  E  E  E   
-------------------|--------------------------|-------------------|-----------------------|
-------------------|--------------------------|-------------------|-----------------------|
--L----------------|--L------12-----10-----9--|--L----------------|--L--------L--9-----7--|
--L----------------|--L------10------8-----7--|--L----------------|--L--------L--7-----5--|
-------------------|--------------------------|-------------------|-----------------------|
-------------------|--------------------------|-------------------|-----------------------|


  W                   H         H         4x
-------------------|----------------------||
-------------------|----------------------||
--L----------------|--L--------12--------*||
--L----------------|--L--------10--------*||
-------------------|----------------------||
-------------------|----------------------||

Synthamabass

                                      E  E  E  E  E  E  E  E     E  E  E  E  E  E  E  E   
G||-------|-------|-------|-------||---------------------------|--------------------------|
D||-------|-------|-------|-------||*--------------------------|--------------------------|
A||-------|-------|-------|-------||---5--------5--4--5--4--5--|-----------5--0--0--5-----|
E||-------|-------|-------|-------||*--------------------------|--------------------------|
B||-------|-------|-------|-------||---------------------------|--------------------------|


  E  E  E  E  E  E  E  E     E  E  E  E  E  E  Q       E  E  E  E  E  E  E  E     E  E  E  E  E  E  E  E   
--------------------------|-------------------------|--------------------------|--------------------------|
--------------------------|-------------------------|--------------------------|--------------------------|
--3--------3--2--3--2--3--|-----------3--------3----|--5--------5--4--5--4--5--|-----------5--0--0--5-----|
--------------------------|--------------3--3-------|--------------------------|--------------------------|
--------------------------|-------------------------|--------------------------|--------------------------|


  E  E  E  E  E  E  E  E     E  E  E  E  E  E  Q       E  E  E  E  E  E  E  E     E  E  E  E  E  E  E  E   
--------------------------|-------------------------|--------------------------|--------------------------|
--------------------------|-------------------------|--------------------------|--------------------------|
--3--------3--2--3--2--3--|-----------3--------3----|--5--------5--4--5--4--5--|-----------5--0--0--5-----|
--------------------------|--------------3--3-------|--------------------------|--------------------------|
--------------------------|-------------------------|--------------------------|--------------------------|


  E  E  E  E  E  E  E  E     E  E  E  E  E  E  E  E     E  E  E  E  E  E  E  E     E  E  E  E  E  E  E  E   
--------------------------|--------------------------|--------------------------|--------------------------|
--------------------------|--------------2-----2-----|--------------------------|--------------------------|
--3--------3--2--3--2--3--|-----------3-----2-----2--|--5--------5--4--5--4--5--|-----------5--0--0--5-----|
--------------------------|--------------------------|--------------------------|--------------------------|
--------------------------|--------------------------|--------------------------|--------------------------|


  E  E  E  E  E  E  E  E     E  E  E  E  E  E  Q       E  E  E  E  E  E  E  E     E  E  E  E  E  E  E  E   
--------------------------|-------------------------|--------------------------|--------------------------|
--------------------------|-------------------------|--------------------------|--------------------------|
--3--------3--2--3--2--3--|-----------3--------3----|--5--------5--4--5--4--5--|-----------5--0--0--5-----|
--------------------------|--------------3--3-------|--------------------------|--------------------------|
--------------------------|-------------------------|--------------------------|--------------------------|


  E  E  E  E  E  E  E  E     E  E  E  E  E  E  Q     4x
--------------------------|--------------------------||
--------------------------|-------------------------*||
--3--------3--2--3--2--3--|-----------3--------3-----||
--------------------------|--------------3--3-------*||
--------------------------|--------------------------||

Duration Legend
---------------
W - whole
H - half
Q - quarter
E - 8th
S - 16th
. - note dotted
|-n-|  - n-tuplets


Tablature Legend
----------------
L - tied note
g - grace note
Login or Register to remove this ad.