Ads

Limit Break x Survivor (Dragon Ball Super) Guitar Tab

Submitted: Jan 22, 2018 by FocusShallNotFail

5
Average: 5 (2 votes)
Download | Listen
Game: Dragon Ball Super
Composer(s): Norihito Sumitomo
Style: Arrangement, Fingerstyle
Series: Dragon Ball

AutoScroll: Slow | Medium | Fast
Title: Dragon Ball Super Opening 2
Artist: Kiyoshi Hikawa
Album: 
Author: Tab by Eduardo Barelli

Track 1: Limit Break x Survivor

E|------------------------------|-10------7-------5---------------|--------------------------7---|
B|------------------------------|-----10------7-------5-------7---|-------------5-------10-------|
G|------------------------------|---------------------------------|-----7---------------9--------|
D|------------------------------|---------------------------------|-------------4-------7--------|
A|---------------------x---x----|-----------------5---5-----------|-7---7------------------------|
E|---------------------x---x----|-7---7---------------------------|------------------------------|

E|-10------7-------5---------------|---------------------------------|----------2---2---------------|
B|-----10------7-------5-------7---|-------------5-------------------|------------------5---3---5---|
G|---------------------------------|-----7---------------------------|-4----4-----------------------|
D|---------------------------------|-------------4-------------------|------------------------------|
A|-----------------5---5-----------|-7---7-------------------x-------|-2----2---2---2---2---2---2---|
E|-7---7---------------------------|-------------------------x-------|------------------------------|

E|----------2---2---------------|------------------------------|-5-------------------------|
B|------------------5---3---5---|----------7---7---5-------5---|------7---5---3---5---3----|
G|-4----4-----------------------|-4----4---------------7-------|---------------------------|
D|------------------------------|------------------------------|---------------------------|
A|-0----0---0---0---0---0---0---|------------------------------|---------------------------|
E|------------------------------|-4----4---4---4---4---4---4---|-3----3---3---3---3---3----|

E|---------------------------------|---------------------------------|---------------------------------|
B|---------------------------------|---------------------------------|---------------------------------|
G|-2-------4-------2-------4---2---|-----2-------4---2---------------|-2-------4-------2-------4---2---|
D|---------------------------------|---------------------------------|-4-------------------------------|
A|---------------------------------|-------------------------x-------|-2---2-----------------------2---|
E|---------------------------------|-------------------------x-------|---------------------------------|

E|---------------------------------|---------------------------------|---------------------------|
B|---------------------------------|---------------------------------|---------------------------|
G|-----4-------2---4---------------|-2-------4-------2-------4---2---|-----4-------2---4---------|
D|---------------------------------|-4-------------------------------|---------------------------|
A|-----2-------2---2-------4-------|-5---5-----------------------5---|-----5-------5---5---------|
E|---------------------------------|---------------------------------|---------------------------|

E|---------------------------------|---------------------------------|-2---------------0---------------|
B|-3---------------2---------------|---------------------------------|-3-------------------------------|
G|-0-------------------------------|-2-------------------------------|---------------------------------|
D|---------------------------------|-----------------4---------------|---------------------------------|
A|---------------------------------|---------------------------------|---------------------------------|
E|-0---0---0---0---0---0---0---0---|-0---0---0---0---0---2---2---2---|-3---3---3---3---3---3---3---3---|

E|---------------------------------|---------------------------------|---------------------------------|
B|-2-------------------------------|---------------------------------|---------------------------------|
G|-2---------------2---------------|-2-------4-------2-------4---2---|-----4-------2---4---------------|
D|---------------------------------|-4-------------------------------|---------------------------------|
A|-0---0---0---0---0---0---0---0---|-2---2-----------------------2---|-----2-------2---2-------4-------|
E|---------------------------------|---------------------------------|---------------------------------|

E|---------------------------------|---------------------------|---------------------------------|
B|---------------------------------|---------------------------|-3---------------2---------------|
G|-2-------4-------2-------4---2---|-----4-------2---4---------|-0-------------------------------|
D|-4-------------------------------|---------------------------|-2-------------------------------|
A|-5---5-----------------------5---|-----5-------5---5---------|---------x---------------x-------|
E|---------------------------------|---------------------------|-0---0---x---0-------0---x---0---|

E|---------------------------------|-2---------------0---------------|---------------------------------|
B|---------------------------------|-3-------------------------------|-2-------------------------------|
G|-2-------------------------------|-0-------------------------------|-2---------------2---------------|
D|-----------------4---------------|---------------------------------|-2-------------------------------|
A|---------x---------------x-------|---------x---------------x-------|-0---0---x---0-------0---x---0---|
E|-----0---x---0-------2---x---2---|-3---3---x---3-------3---x---3---|---------x---------------x-------|

E|---------------------|--------------------|---------------------|--------------------|
B|---------------------|------3---3---------|---------------------|--------------------|
G|-----------4----4----|-6------------------|-7----7--------------|-6----7---7---------|
D|-5----5--------------|--------------------|-7----7----7----7----|--------------------|
A|-5----5--------------|--------------------|-5----5--------------|--------------------|
E|-3----3--------------|--------------------|---------------------|--------------------|

E|------------------------|------------------------|------------------------|-2--------0-------------|
B|-2----0----2---0--------|-2----0----2---0--------|-3--------2--------0----|-------------------3----|
G|-2----2-----------------|-2----2-----------------|-4----------------------|-------------------4----|
D|-2----------------------|-2----------------------|-4----------------------|------------------------|
A|-0----x----0-------x----|-0----x----0-------x----|-2----x-------2----x----|-2----x-------2----x----|
E|------x------------x----|------x------------x----|------x------------x----|------x------------x----|

E|---------------------|--------------------|---------------------|--------------------|
B|---------------------|------3---3---------|---------------------|--------------------|
G|-----------4----4----|-6------------------|-7----7--------------|-6----7---7---------|
D|-5----5--------------|--------------------|-7----7----7----7----|--------------------|
A|-5----5--------------|--------------------|-5----5--------------|--------------------|
E|-3----3--------------|--------------------|---------------------|--------------------|

E|-----------------------|------------------------|------------------|---------------------|
B|-3---0-------0---------|-3---0-------0-----3----|-7-----6-----5----|-5---------5---------|
G|-0---0-------0---------|-0---0-------0-----0----|-6-----6-----6----|-6---7-----6----7----|
D|-2---2-------2---------|-2---2-------2-----2----|-4-----4-----4----|-4---4-----4----4----|
A|-2---2-------2---------|-2---2-------2-----2----|-4-----4-----4----|-4---4-----4----4----|
E|-0---0-------0---------|-0---0-------0-----0----|------------------|---------------------|

E|-2--------2--------2----|-2----------------2---2-------|-2-------------------0-------2---|
B|-2--------2--------2----|-2----------------------------|---------0-------3---------------|
G|-3--------3--------3----|-3----------------------------|---------------------------------|
D|-4--------4--------4----|-4----------------------------|---------------------------------|
A|-4--------4--------4----|-4----------------0-------0---|-2---2---2---2---2---2---2---2---|
E|-2--------2--------2----|-2----------------------------|---------------------------------|

E|---------------------2-------2---|-2-------------------0-------2---|---------------------2---0-------|
B|---------------------------------|---------0-------3---------------|-----------------------------3---|
G|---------------------------------|---------------------------------|---------------------------------|
D|---------------------------------|-0---0---0---0---0---0---0---0---|-0---0---0---0---0---------------|
A|-2---2---2---2---2---2---2---0---|---------------------------------|---------------------------------|
E|---------------------------------|---------------------------------|---------------------------------|

E|-0-------------2---0-------|-0-------------2---0-------|-----------------0-------2-------|
B|-----------------------3---|-----------------------3---|-0-------3-----------------------|
G|---------------------------|---------------------------|---------------------------------|
D|----------2----------------|----------2----------------|-----------------0---0-----------|
A|------2--------------------|------2--------------------|---------2---2-------------------|
E|-0-------------------------|-0-------------------------|-3---3-------------------3---3---|

E|-0-------------------2---2---2---|-2-------------------0-------2---|------------------2---2---2---|
B|---------------------------------|---------0-------3---------------|------------------------------|
G|---------------------------------|---------------------------------|------------------------------|
D|-----------------2---------------|---------------------------------|------------------0-----------|
A|-0---0---4---4-------0---0---0---|-2---2---2---2---2---2---2---2---|-2---2---2---4----------------|
E|---------------------------------|---------------------------------|------------------------------|

E|-2---2---------------0-------2---|------------------2---0-------|-0-------------2---0-------|
B|---------0---0---3---------------|--------------------------3---|-----------------------3---|
G|---------------------------------|------------------------------|---------------------------|
D|---------------------------------|------------------------------|----------2----------------|
A|---------------------------------|----------------------2-------|------2--------------------|
E|-3---3---3---3---3---3---3---3---|-3---3---3---2----2-------2---|-0-------------------------|

E|-0-------------2---0-------|-----------------0-------2-------|-0-------------------0---0---0---|
B|-----------------------3---|-0-------3-----------------------|---------------------------------|
G|---------------------------|---------------------------------|-------------------------2---2---|
D|----------2----------------|-----------------0---0-----------|-----------------2---2-----------|
A|------2--------------------|---------2---2-------------------|-0---0---4---4-------------------|
E|-0-------------------------|-3---3-------------------3---3---|---------------------------------|

E|-1-----------0-------------------|------------------------------|---------------------------|
B|-------------------------3-------|-0----------------------------|-----------3---0-------6---|
G|---------------------------------|-------------2----------------|-4----4------------4-------|
D|-------------------------0-------|-------------------------4----|-----------------------3---|
A|---------------------------------|-0---0---0---0---0---0--------|-2-------------------------|
E|-3---3---3---3---3---3-------3---|-------------------------2----|---------------------------|

E|---------------------------------|
B|-----6---5-----------------------|
G|-------------7---4---------------|
D|-----3---2-----------------------|
A|-------------5---2---------------|
E|---------------------------------|
Login or Register to remove this ad.