Enchanter (Dragon Age: Inquisition) Guitar Tab

Submitted: Nov 29, 2018 by laoise

5
Average: 5 (2 votes)
Download | Listen
Game: Dragon Age: Inquisition
Composer(s): Trevor Morris
Style: Arrangement, Fingerstyle
Series: Dragon Age

AutoScroll: Slow | Medium | Fast
Dragon Age: Inquisition - Enchanter                                 
Arranged by Laoise Earle

Standard Tuning
                                               ^                                 
     E  E  Q    E  E  Q       E  E  Q    E  E  E  E     E  E  E  E  E  E  E  E   
E||------------------------|-------------------0-----|--------------------------|
B||--------1----------1----|--------1----------1--3--|--1-----1--0--1-----1--3--|
G||--------2----------2----|--------2----------2-----|--------2-----------2-----|
D||-----2----------2-------|-----2----------2--------|-----2-----------2--------|
A||--0----------0----------|--0----------0-----------|--0-----------0-----------|
E||------------------------|-------------------------|--------------------------|

                                                              ^                 
  E  E  E  E  E  E  E  E     E  E  E  E  E  E  E  E     E  E  E  E  E  E  Q     
--0--5--5--3--0-----------|--------------------------|-----------0-------------|
--------------------3--0--|--0--1--1--------0--0--1--|--3-----3-----3--0-------|
--------5-----------2-----|-----------2--2--------2--|--------0-----------0----|
-----0-----------0--------|--------3-----------3-----|-----0-----------0-------|
--------------------------|--------------------------|-------------------------|
--3-----------3-----------|--1-----------1-----------|--3-----------3----------|


  E  E  E  E  E  E  E  E     E  E  E  E  E  E  E  E     E  E  E  E  E  E  E  E   
--------------------------|--0--5--5--3--0-----------|--------------------------|
-----------0--1-----1--3--|--------------------3--0--|--1--------1--3--0--0--0--|
--2--0--2-----------2-----|--------5-----------2-----|-----2--2-----------0-----|
--------2--------2--------|-----2-----------0--------|--------3--------0--------|
--0-----------0-----------|--0-----------------------|-----3--------------------|
--------------------------|--------------3-----------|--1-----------3-----------|


  E  E  E  E  Q    E  E     E  E  E  E  E  E  E  E     E  E  E  E  E  E  E  E   
-------------------0-----|--------------------------|--0--5--5--3--0-----------|
--0-------------------3--|--1-----1--0--1-----1--3--|--------------------3--0--|
-----2--2--0--2----------|--------2-----------2-----|--------5-----------2-----|
--------2-----2----------|-----2-----------2--------|-----0-----------0--------|
--0--------0-------------|--0-----------0-----------|--------------------------|
-------------------------|--------------------------|--3-----------3-----------|

                                   ^                                            
  E  E  E  E  E  E  E  E     E  E  E  E  E  E  Q       E  E  E  E  E  E  E  E   
--------------------------|-----------0-------------|--------------------------|
--0--1--1--------0--0--1--|--3-----3-----3--0-------|-----------0--1-----1--3--|
-----------2--2--------2--|--------0-----------0----|--2--0--2-----------2-----|
--------3-----------3-----|-----0-----------0-------|--------2--------2--------|
--------------------------|-------------------------|--0-----------0-----------|
--1-----------1-----------|--3-----------3----------|--------------------------|


  E  E  E  E  E  E  E  E     E  E  E  E  E  E  E  E     E  E  E  E  E  E  E  E   
--0--5--5--3--0-----------|--------------------------|--------------------------|
--------------------3--0--|--1--------1--3--0--0--0--|--0--------------0--1--3--|
--------5-----------2-----|-----2--2-----------0-----|-----2--2--0--2-----------|
-----2-----------0--------|--------3--------0--------|--------2-----2-----2-----|
--0-----------------------|-----3--------------------|--0--------0--------------|
--------------3-----------|--1-----------3-----------|--------------------------|

        ^                          ^                          ^                  
  E  E  S S E  E  E  Q       E  E  S S E  E  E  Q       E  E  S S E  E  E  Q     
-----5--5-5-5--5----------|-----5--5-5-5--5----------|-----3--3-3-3--3--0-------|
------------------8--5----|------------------8--5----|---------------------3----|
--------5------------5----|--------5------------5----|--------0------------0----|
--------7---------7-------|--------7---------7-------|--------0---------0-------|
--0------------0----------|--0------------0----------|--------------------------|
--------------------------|--------------------------|--3------------3----------|


  S S E  S S E  E  E  E  E     E  E  E  E  E  E  E  E     E  E  E  E  E  E  E  E   
--0-2-3--2-3-5--3--0--------|--------------------------|--0--5--5--3--0-----------|
---------0------------3--0--|-----------0--1-----1--3--|--------------------3--0--|
---------0------------0-----|--2--0--2-----------2-----|--------5-----------2-----|
------0------------0--------|--------2--------2--------|-----2-----------0--------|
----------------------------|--0-----------0-----------|--0-----------------------|
--3-------------3-----------|--------------------------|--------------3-----------|

                                                              ^                  
  E  E  E  E  E  E  E  E     E  E  E  E  E  E  E  E     E  E  S S E  E  E  Q     
--------------------------|--------------------------|-----5--5-5-5--5----------|
--1--------1--3--0--0--0--|--0--------------0--1--3--|------------------8--5----|
-----2--2-----------0-----|-----2--2--0--2-----------|--------5------------5----|
--------3--------0--------|--------2-----2-----2-----|--------7---------7-------|
-----3--------------------|--0--------0--------------|--0------------0----------|
--1-----------3-----------|--------------------------|--------------------------|

        ^                          ^                                               
  E  E  S S E  E  E  Q       E  E  S S E  E  E  Q       S S E  S S E  E  E  E  E   
-----5--5-5-5--5----------|-----3--3-3-3--3--0-------|--0-2-3--2-3-5--3--0--------|
------------------8--5----|---------------------3----|---------0------------3--0--|
--------5------------5----|--------0------------0----|---------0------------0-----|
--------7---------7-------|--------0---------0-------|------0------------0--------|
--0------------0----------|--------------------------|----------------------------|
--------------------------|--3------------3----------|--3-------------3-----------|


  E  E  E  E  E  E  E  E     E  E  E  E  E  E  E  E     E  E  E  E  E  E  E  E   
--------------------------|--0--5--5--3--0-----------|--------------------------|
-----------0--1-----1--3--|--------------------3--0--|--1--------1--3--0--0--0--|
--2--0--2-----------2-----|--------5-----------2-----|-----2--2-----------0-----|
--------2--------2--------|-----2-----------0--------|--------3--------0--------|
--0-----------0-----------|--0-----------------------|-----3--------------------|
--------------------------|--------------3-----------|--1-----------3-----------|


              ^          
  E  E  E  E  H          
-----------------------||
--0--------------------||
-----2--2--0--2--------||
--------2-----2--------||
--0-----------0--------||
-----------------------||




Duration Legend
---------------
W - whole
H - half
Q - quarter
E - 8th
S - 16th
T - 32nd
X - 64th
. - note dotted
|-n-|  - n-tuplets


Tablature Legend
----------------
L - tied note
x - dead note
g - grace note
(n) - ghost note
> - accentuded note
NH - natural harmonic
AH - artificial harmonic
TH - tapped harmonic
SH - semi harmonic
PH - pitch harmonic
h - hammer on
p - pull off
b - bend
br - bendRelease
pb - preBend
pbr - preBendRelease
brb - bendReleaseBend
\n/ - tremolo bar dip
\n - tremolo bar dive
-/n - tremolo bar Release up
/n\ - tremolo bar inverted dip
/n - tremolo bar return
-\n - tremolo bar Release down
S - shift slide
s - legato slide
/ -  slide into from below or out of upwards
\ -  slide into from above or out of downwards
~ - vibrato
W - wide vibrato
tr - trill
TP - tremolo picking
T - tapping
S - slap
P - pop
< - fade in
^ - brush up
v - brush down

Login or Register to remove this ad.

1 comment on Enchanter

noice

5

haven't played too much of Inquisition but this is a great song with an amazing tab