Dragon Age Inquisition Theme (Dragon Age: Inquisition) Guitar Tab

Submitted: Aug 08, 2018 by ESCtheGuitar (Last updated: Aug 08, 2018)

0
Download | Listen
Game: Dragon Age: Inquisition
Composer(s): Trevor Morris
Style: Arrangement, Fingerstyle
Series: Dragon Age

Click here for a video example.

AutoScroll: Slow | Medium | Fast
DRAGON AGE INQUISITION THEME / THE DAWN WILL COME - DRAGON AGE: INQUISITIONâ„¢
(FINGERSTYLE COVER ARRANGED BY ESCtheGuitar)

DROP D TUNING

NO CAPO



E--------------------------------------------------------------------------------
B-----------------0---1---0------------------------------------------------------
G---------2---2-------0-------2-----------2---2----------------------------------
D---0---------0-------2-------0---0---0-------0---0---3---2----------------------
A---0-----------------3---------------0---------------3---3---3------------------
D---0---------------------------------0-----------------------3------------------


E--------------------------------------------------------------------------------------
B----------------------0---1---3-------------------------------------------------------
G-----------2---2----------0-------2-----------2---2-----------------------------------
D---0---0-------0----------2-------0---0---0-------0---0---3---2---------------0---0---
A-------0------------------3---------------0---------------3---3---3---0---0-------0---
D-------0----------------------------------0-----------------------3-------0-------0---


[DRUM BEATS]


E-------------------------------------------------------------------
B-------------------------------------------------------------------
G-------------------------------------------------------------------
D-------------------------------------------------------------------
A-------------------------------------------------------------------
D---0---2---3---0---2---3---0---2---3---0---2---3---5---------------


E-------------------------------------------------------------------
B-------------------------------------------------------------------
G-------------------------------------------------------------------
D-------------------------------------------------------------------
A-------------------------------------------------------------------
D---0---2---3---0---2---3---0---2---3---0---2---3---5---3---2---3---


E-------------------------------------------------------------
B---3---3---3---3---3---3---3---3-----------------------------
G---2---2---2---2---2---2---2---2-----------------------------
D---0---0---0---0---0---0---0---0-----------------------------
A-------------------------------------------------------------
D---0---0---0---0---0---0---0---0-----------------------------

[^^REPEAT THAT (the fast bit)^^]

(BASIC CHORDS USED... not in chronological order: [B, Dm, C, G, Am])

     
E-----------------------------------------------------------1------------------------------------
B-------------------------------3---------------------------3-------3---------------3------------
G---3-----------3-----------0---3-------3---------------3---2---2-------2-------2----------------
D---0-------0-----------0-------3---3-------3-------3-------0---------------0--------------------
A-------------------------------1---------------1------------------------------------------------
D---5---5-----------5----------------------------------------------------------------------------


E---3---------------0-------------------------------------------1--------------------------------
B---1-------1-------1-------1-------3---------------------------3-------3---------------3--------
G-------0-------0-------0-------0---3-------3---------------3---2---2-------2-------2------------
D-----------------------------------3---3-------3-------3-------0---------------0----------------
A---3---------------3---------------1---------------1--------------------------------------------
D------------------------------------------------------------------------------------------------


E---0--------------------------------------------------------------------------------------------
B---1-------1---------------3--------------------------------------------------------------------
G-------0-------0-------0-------3-------3---------------0---3---2---3---------------0------------
D-------------------------------0---0-------0-------0-------0-----------0-------0----------------
A---3---------------3----------------------------------------------------------------------------
D-------------------------------5---------------5-----------5---------------5--------------------


E-------------------------------1---0---1-------------------3---------------0--------------------
B---3---1---3-------------------3-----------3-----------3---1-------1-------1-------1------------
G---3-----------3-----------3---2-------------------2-------0---0-------0---0---0-------0--------
D-----------------------3-------0---------------0------------------------------------------------
A---1---------------1---------------------------------------3---------------3--------------------
D------------------------------------------------------------------------------------------------


E-------------------------------1---0---1-------------------0------------------------------------
B---3---1---3-------------------3-----------3-----------3---1-------1---------------1------------
G---3-----------3-----------3---2-------------------2-------0---0-------0-------0----------------
D-----------------------3-------0---------------0------------------------------------------------
A---1---------------1---------------------------------------3---------------3--------------------
D------------------------------------------------------------------------------------------------


E---0------------------------------------------------------------------------------------
B---1-------1---------------1------------------------------------------------------------
G---2---2-------2-------2----------------------------------------------------------------
D---2------------------------------------------------------------------------------------
A---0---------------0--------------------------------------------------------------------
D----------------------------------------------------------------------------------------


E-------------------------------------------------------------------
B-------------------------------------------------------------------
G-------------------------------------------------------------------
D-------------------------------------------------------------------
A-------------------------------------------------------------------
D---0---2---3---0---2---3---0---2---3---0---2---3---5---------------


E-------------------------------------------------------------------
B-------------------------------------------------------------------
G-------------------------------------------------------------------
D-------------------------------------------------------------------
A-------------------------------------------------------------------
D---0---2---3---0---2---3---0---2---3---0---2---3---5---3---2---3---


E-------------------------------------------------------------
B---3---3---3---3---3---3---3---3-----------------------------
G---2---2---2---2---2---2---2---2-----------------------------
D---0---0---0---0---0---0---0---0-----------------------------
A-------------------------------------------------------------
D---0---0---0---0---0---0---0---0-----------------------------

[^^REPEAT THAT^^]


E------------------------------------------------------------------------------------------------
B-----------------------------------------------------------0---1---------------0----------------
G-------------------2---------------2---------------------------0-------0---------------0--------
D---0-------0---------------0---------------0-------------------2---2-------2-------2-------2----
A---0---0-------0-------0-------0-------0-------0-------0-------3---------------3----------------
D---0---------------0---------------0---------------0--------------------------------------------


E-----------------------------------------------5---------------5--------------------------------
B---------------------------3---3---------------3-------3-------3-------3---------------3--------
G---2---------------------------2-------2-----------2-------2-------2-------2--------------------
D---0-------0-----------------------0-------0---------------------------------------0------------
A-------0-------0-------0------------------------------------------------------------------------
D---0---------------0-----------0---------------0-------------------------------0----------------


E---1---------------0----------------------------------------------------------
B---1-------1-------1-------1-------1------------------------------------------
G-------2-------2-------0-------0---2-------2----------------------------------
D-----------------------------------2---2-------2-------2----------------------
A---3---------------3---------------0---------------0--------------------------
D------------------------------------------------------------------------------


E-----------------------5---------------5-----------------------7---8---------------10-------------
B---3---3---------------3-------3-------3-------3---------------------------0----------------0-----
G-------2-------2-----------2-------2-------2-------2-------2-----------0-------0--------0-------0-
D-----------0-------0------------------------------------------------------------------------------
A-------------------------------------------------------------------0----------------0-------------
D-------0---------------0---------------0---------------0------------------------------------------


E---5-------------------------------------------5---------------5--------------------------------
B---3-------3---------------3---3---------------3-------3-------3-------3---------------3--------
G---2---2-------2-------2-------2-------2-----------2-------2-------2-------2-------2------------
D-----------------------------------0-------0----------------------------------------------------
A------------------------------------------------------------------------------------------------
D---0---------------0-----------0---------------0---------------0---------------0----------------


E---1---------------0----------------------------------------------------------------------------
B---1-------1-------1-------1-------1------------------------------------------------------------
G-------2-------2-------0-------0---2-------2---------------2-----------2-----------2-------2----
D-----------------------------------2---2-------2-------2-----------2-------2-------2---2--------
A---3---------------3---------------0---------------0-----------0---------------0---0------------
D------------------------------------------------------------------------------------------------


E----------------------------------------------------------------------------------------------
B---3------------------------------------------------------------------------------------------
G---3-------3---------------3-----------3---------------3-----------3---------------3----------
D---3---3-------3-------3-----------3-------3-------3-----------3-------3-------3--------------
A---1---------------1-----------1---------------1-----------1---------------1------------------
D----------------------------------------------------------------------------------------------


E----------------------------------------------------------------------------------------------
B----------------------------------------------------------------------------------------------
G----------------------------------------------------------------------------------------------
D---0------------------------------------------------------------------------------------------
A---0------------------------------------------------------------------------------------------
D---0------------------------------------------------------------------------------------------

Login or Register to remove this ad.