Ads

Title Theme (Dr. Mario) Ukulele Tab

Submitted: Oct 11, 2021 by ajarthur (Last updated: Oct 24, 2021)

0
Download | No audio :(
Game: Dr. Mario
Composer(s): Hirokazu Tanaka
Style: Fingerstyle
Series: Mario

Click here for a video example.

AutoScroll: Slow | Medium | Fast
             Doctor Mario - Title Background Music Ukulele

Composed - Hirokazu Tanaka		
Arranged - Alan Arthur based on Satoshi Aikawa’s guitar arrangement		

Low G tuning

    E  E  E  E  E  E  E  E    E  E  E  E  E  E  E  E    E  E  E  E  E  E  E  E
||--------------------------|-------------0-----0-----|-------------------------|
||*-2-----2-----2-----------|----3-----3--------------|-2-----3-----2-----------|
||*-------------------------|-------------------------|-------------------------|
||--------------------------|-------------------------|-------------------------|

  E  E  E  E  E  E  E  E    E  E  E  E  E  E  E  E    E  E  E  E  E  E  E  E
|-------------0-----0-----|-------------------------|-------------0-----0-----|
|----3-----3--------------|-2-----2-----------------|----3-----3--------------|
|-------------------------|-------------2-----------|-------------------------|
|-------------------------|-------------------------|-------------------------|

  E  E  E  E  E  E  E  E    E  E  E  E  E  E  E  E    E  E  E  E  E  E  E  E
|-------------------------|----0--------------------|-------------------------|
|-2-----3-----2-----------|-------3-----2-----0-----|-2-----5-----------------|
|-------------------------|-------------------------|-2--------2--------2-----|
|-------------------------|-------------------------|-------------4-----------|

  E  E  E  E  E  E  E  E    E  E  E  E  E  E  E  E    E  E  E  E  E  E  E  E
|----2-----2--0-----------|-------------------------|----2-----2--0-----------|
|----------------3--2--0--|-2-----5-----------------|----------------3--2--0--|
|-------------------1-----|-2--------2--------2-----|-------------------1-----|
|-0-----4-----2-----------|-------------4-----------|-0-----4-----2-----------|

  E  E  E  E  E  E  E  E    E  E  E  E  E  E  E  E    Q  Q  Q  Q    Q  Q  Q  Q
|-------------------------|----------2--0-----------|-------2-----|----1--0-----|
|-2-----5-----------------|----------------3--2--0--|----2-----1--|-0-----------|
|-2--------2--------2-----|----2--------------1-----|-2-----------|----------3--|
|-------------4-----------|-0-----4-----2-----------|-------------|-------------|

  E  E  E  E  E  E  E  E    E  E  E  E  E  E  E  E    E  E  E  E  E  E  E  E
|-------------------------|----2-----2--0-----------|-------------------------|
|-2-----5-----------------|----------------3--2--0--|-2-----5-----------------|
|-2--------2--------2-----|-------------------1-----|-2--------2--------2-----|
|-------------4-----------|-0-----4-----2-----------|-------------4-----------|

  E  E  E  E  E  E  E  E    E  E  E  E  E  E  E  E    E  E  E  E  E  E  E  E
|-------------------------|-------------------------|-------------------------|
|-------------------0-----|-2-----5-----------------|-------------------0-----|
|----2-----2--1--2--1--2--|-2--------2--------2-----|----2-----2--1--2--1--1--|
|-0-----4-----2-----------|-------------4-----------|-0-----4-----2-----------|

  E  E  E  E  E  E  E  E    E  E  E  E  E  E  E  E    E  E  E  E  E  E  E  E
|-------------------------|-------------------------|----5--------2-----------|
|-------------0-----0-----|-1-----1-----2-----2-----|-------------------3-----|
|-2-----2-----------------|-------------------------|-------------2-----4-----|
|-------------------------|-------------------------|-0-----4-----------------|

  E  E  E  E  E  E  E  E    E  E  E  E  E  E  E  E    E  E  E  E  E  E  E  E
|-------0--2--------------|-------------------------|-0-----------------------|
|-3-----0-----------------|----2--------2-----3-----|-------------------2-----|
|-5-----------2-----------|-2-----------------------|-0-----------------------|
|-------------------4-----|-------------2-----4-----|-------4-----2-----------|

								 |---3---|   |---3---|
  E  E  E  E  E  E  E  E    E  E  E  E  E  E  E  E    E  E  E  E  E  E  E  E
|----5--------2-----------|-------0--2--------------|-0---0---0---0---0---0---|
|-------------------3-----|-3-----0-----------------|-------------0-----------|
|-------------2-----4-----|-5-----------2-----------|-------1-----------1-----|
|-0-----4-----------------|-------------------4-----|-2-----------------------|




  E  E  E  E  E  E  E  E    E  E  E  E  E  E  E  E    E  E  E  E  E  E  E  E
|-0-----------------------|----------5--------------|----------------------0--|
|-1-----------------------|-------5-----------------|----0--------0--2--3-----|
|-------------------------|-6-----6-----------2-----|----------2--------1-----|
|-------------------------|-7-----------4-----------|-0-----4-----2-----------|

  E  E  E  E  E  E  E  E    E  E  E  E  E  E  E  E    E  E  E  E  E  E  E  E
|-------------------------|----------------------0--|-------------------------|
|-2-----------------------|----0--------0--2--3-----|-2-----5-----------------|
|-2-----2-----------2-----|----------2--------1-----|-------------2-----2-----|
|----------2--------------|-0-----4-----2-----------|-------------------2-----|

  E  E  E  E  E  E  E  E    E  E  E  E  E  E  E  E    |-3-|  |-3-|  |-3-|  Q    W
|-------------------------|-------------------------|-------------------------|-5-||
|-------------------0-----|-------------------------|-------------------------|-2-||
|----2-----2--1--2--1--1--|-2-----------------------|-2-2-2--2-2-2--2-2-2--2--|-2-||
|-0-----4-----2-----------|-5-----5-----5-----5-----|-4-4-4--4-4-4--4-4-4--4--|-2-||
Login or Register to remove this ad.

1 comment on Title Theme

Video

https://www.youtube.com/watch?v=A0P-g0MA6SI