Ads

Chill (Dr. Mario) Guitar Tab

Submitted: Nov 25, 2014 by ltm_1988 (Last updated: Nov 26, 2014)

5
Average: 5 (1 vote)
Download | Listen
Game: Dr. Mario
Composer(s): Hirokazu Tanaka
Style: Arrangement, Fingerstyle
Series: Mario

AutoScroll: Slow | Medium | Fast
Chill
Dr. Mario
Hirokazu Tanaka
ltm_1988
11/25/2014

    E   E   E   E   S S E   E   E     E   E   E   E   H
E||-----3-----------3---------------|-2-----------2-------------------|
B||-----5---1-------5---------------|-3-------1---3-------------------|
G||-2---2-------2-----------0---1---|-2---2-------2-------------------|
D||-----------------2-2-2-----------|-----------------2---------------|
A||---------------------------------|---------------------------------|
E||---------------------------------|---------------------------------|

    E   E   E   E   S S E   E   E     H.                      Q
E||-----1-----------1---------------|-0-------------------------------|
B||-----3---1-------3---------------|-1-------------------------------|
G||-----2-------2-----------0-------|-2-------------------------------|
D||-----------------2-2-2-------2---|---------------------------------|
A||---------------------------------|---------------------------------|
E||---------------------------------|-------------------------12/-----|

    E   E   E   E   S S E   E   E     E   E   E   E   H
E||---------------------------------|---------------------------------|
B||---------------------------------|---------------------------------|
G||*----2-----------2---------------|-2-----------2-------------------|
D||*----2-----------2---------------|-2-----------2-------------------|
A||-----0---3---0-------------------|-0---0---3---0-------------------|
E||/5---------------0-0-0---3---4---|-----------------0---------------|

    E   E   E   E   S S E   E   E     S S E   E   E   H
E||---------------------------------|---------------------------------|
B||---------------------------------|---------------------------------|
G||-----2-----------2---------------|-0-----------2-------------------|
D||-----2-----------2---------------|-0-----------2-------------------|
A||-----0---3---0-------------------|-0-0-0---3---0---3---------------|
E||-----------------0-0-0---3---0---|---------------------------------|

    E   E   E   E   S S E   E   E     E   E   E   E   H
E||---------------------------------|---------------------------------|
B||---------------------------------|---------------------------------|
G||-----2-----------2---------------|-2-----------2-------------------|
D||-----2-----------2---------------|-2-----------2-------------------|
A||-0---0---3---0-------------------|-0---0---3---0-------------------|
E||-----------------0-0-0---3---4---|-----------------0---------------|

    E   E   E   E   S S E   E   E     Q.          S H               S
E||---------------------------------|---------------------------------|
B||---------------------------------|---------------------------------|
G||-----2-----------2---------------|---------------------------------|
D||-----2-----------2---------------|---------------------------------|
A||-----0---3---0-------------------|---------------------------------|
E||-----------------0-0-0---3---0---|-11/----------/0-----------------|

    E   E   E   E   S S E   E   E     E   E   E   E   H
E||---------------------------------|---------------------------------|
B||---------------------------------|---------------------------------|
G||---------------------------------|---------------------------------|
D||-----2-------2-------------------|---------------------------------|
A||-0---0---3---0---3---------------|-0---0---3---0---3---------------|
E||-----------------0-0-0---3---4---|-----------------0---------------|

    E   E   E   E   S S E   E   E     S S E   E   E   H
E||---------------------------------|---------------------------------|
B||---------------------------------|---------------------------------|
G||-----------------0---------------|---------------------------------|
D||-----2-------2-----------4---0---|-3---2/--------------------------|
A||-----0---3---0-------------------|-0-0-0---3---0---3---------------|
E||-----------------0-0-0---3---4---|---------------------------------|

    E   S S E   E   S S E   E   E     E   E   E   E   H
E||---------------------------------|---------------------------------|
B||---------------------------------|---------------------------------|
G||---------------------------------|---------------------------------|
D||-----2-2-----2-------------------|---------------------------------|
A||-0---0---3---0---3---------------|-0---0---3---0-------------------|
E||-----------------0-0-0---3---4---|-----------------0---------------|

    E   E   E   E   S S E   E   E     S S E   E   E   H
E||---------------------------------|---------------------------------|
B||---------------------------------|---------------------------------|
G||-----------------0---------------|---------------------------------|
D||-----2-------2-----------4---0---|-2-------------------------------|
A||-----0---3---0-------------------|-0-0-0---3---0---3---------------|
E||-----------------0-0-0---3---4---|---------------------------------|

    S S S S S S S S S S S S S S S S   S S S S S S S S S S S S S S S S
E||---------------------------------|---------------------------------|
B||---------------------------------|---------------------------------|
G||---2-----2-----2---2-----2-----2-|---2-----2-----2---2-----2-----2-|
D||---------------------------------|---------------------------------|
A||-0---0-0---0-0---0---0-0---0-0---|-3---0-0---0-0---0---0-0---0-0---|
E||---------------------------------|-3-------------------------------|

    S S S S S S S S S S S S S S S S   S S S S S S S S S S S S Q
E||---------------------------------|---------------------------------|
B||---------------------------------|---------------------------------|
G||---2-----2-----2---2-----2-----2-|---2-----2-----2---2-----2-------|
D||-0-------------------------------|-1-------------------------------|
A||-0---0-0---0-0---0---0-0---0-0---|-0---0-0---0-0---0---0-0---------|
E||-2-------------------------------|-1-------------------------------|

    E   E   E   E   Q       E   E     E   E   E   E   H
E||---------------------------------|---------------------------------|
B||-----1-----------2---------------|-3-----------2-------------------|
G||-----2---2-------2-------2-------|-2---2-------2-------------------|
D||-------------2---------------2---|---------2-----------------------|
A||-0---0---3---4---0---------------|-----0---3---4---0---------------|
E||---------------------------------|---------------------------------|

    E   E   E   E   Q       E   E     E   E   E   E   H
E||---------------------------------|---------------------------------|
B||-----1-----------2---------------|-3-----------2-------------------|
G||-----2---2-------2-------2-------|-2---2-------2-------------------|
D||-------------2---------------2---|---------2-----------------------|
A||-0---0---3---4---0---------------|-----0---3---4---0---------------|
E||---------------------------------|---------------------------------|

    E   E   E   E   Q       E   E     E   E   E   E   H
E||---------------------------------|---------------------------------|
B||-----1-----------2---------------|-3-----------2-------------------|
G||-----2---2-------2-------2-------|-2---2-------2-------------------|
D||-------------2---------------2---|---------2-----------------------|
A||-0---0---3---4---0---------------|-----0---3---4---0---------------|
E||---------------------------------|---------------------------------|

    E   E   E   E   Q       E   E     E   E   E   E   H
E||---------------------------------|---------------------------------|
B||-----1-----------2---------------|-3-----------2-------------------|
G||-----2---2-------2-------2-------|-2---2-------2-------------------|
D||-------------2---------------2---|---------2-----------------------|
A||-0---0---3---4---0---------------|-----0---3---4---0---------------|
E||---------------------------------|---------------------------------|

    E   Q.          H                 Q.          Q.          Q
E||---------------------------------|---------------------------------|
B||---------------------------------|---------------------------------|
G||-----2-----------2---------------|-2-----------2-----------2-------|
D||-----2-----------2---------------|-2-----------2-----------0-------|
A||---------------------------------|---------------------------------|
E||---------------------------------|---------------------------------|

    E   Q.          H                 Q.          Q.          S E.
E||---------------------------------|---------------------------------|
B||---------------------------------|---------------------------------|
G||-----2-----------2---------------|-2-----------2-----------2-------|
D||-----2-----------2---------------|-2-----------2-----------0-------|
A||---------------------------------|---------------------------------|
E||---------------------------------|---------------------------12/---|

    S S E   E   E   E   E   E   E     S S E   E   E   E   E   E   E
E||---------------------------------|---------------------------------|
B||---------------------------------|---------------------------------|
G||-----2-----------2---------------|-2-----------2-----------2-------|
D||-----2-----------2---------------|-2-----------2-----------0-------|
A||---0-0---0---3---0---0---0-------|-0-0-0---0---3---0---1---0---1---|
E||/5---------------------------0---|---------------------------------|

    S S E   E   E   E   E   E   E     S S E   E   H               E
E||---------------------------------|---------------------------------|
B||---------------------------------|---------------------------------|
G||-----2-----------2----------(2)--|-2-----------2-------------------|
D||-----2-----------2----------(2)--|-2-----------2-------------------|
A||-0-0-0---0---3---0---0---0-------|-0-0-0---0---3-------------------|
E||-----------------------------0---|---------------------------------|

Now the hard part ;)

    S S S S S S S S S S S S S S S S   S S S S S S S E   S S S S S S S
E||---------------------------------|-------------------0-------------|
B||-1---1---1---1---1---1---1---1---|-3---------0-1-0-----3-1-0-------|
G||---2---2---2---2---2---2---2---2-|-------0-2-----------------2-0---|
D||-0-------------------------------|---2-4-------------------------4-|
A||---------------------------------|-3-------------------------------|
E||---------------------------------|---------------------------------|


    Q       Q       S S S S S S S S   S S S S S S S E   S S S S S S S
E||---------------------------------|---------------------------------|
B||---------------------------------|---------------------------------|
G||---------------------------------|-------------0-----2---------0---|
D||---------------------------------|-2-----0-2-4---4-------0-2-4---4-|
A||-10----------------3-------0-2-0-|-3-2-3---0-2---------3-----------|
E||-10/----/3-------3---0-2-3-------|---------------------------------|

    S E   E   E   S S S E   Q         S S S S S E   S S S E   S E.
E||---------------------------------|---------------------------------|
B||---------------------------------|---------------------------------|
G||-2-2-----------------------------|-2-2-----------------------------|
D||-0-0-----------0-2-0-2---4-------|---------------0-2-0-2---4-------|
A||-------2---3-------------0-------|-3---2-2-0-3---------------5-----|
E||-----------2-----3---------------|---------------------------------|

     |-3-|   |-3-|   |-3-|   |-3-|     |-3-|   |-3-|  
     E E E   E E E   E E E   E E E     E E E   E E E  Q       Q
E||---------------------------------|---------------------------------|
B||----1-3---2-1-0------------------|---------------------------------|
G||------------------3-2-1---0------|---------------------------------|
D||--0-------------------------4-3--|--2-1-0--------------------------|
A||--------------------------0------|---------------------------------|
E||---------------------------------|----------9-8-7--6/-----/0-------|

    S E   S S S E   E   E   E   E     E   E   S S Q       S E   E.
E||---------------------------------|---------------------------------|
B||-------3-2---0-------0-----------|-----3---2---3~------------------|
G||-2---------------2-----------0---|-2-------------------------------|
D||-0-0---------------------4-------|---------------------3-4---0-----|
A||-------------------------0-------|-3---2---0-2---------------------|
E||-----------2-----3---------------|---------------------------------|

    S E   S S S E   E   E   Q         Q       Q       E   S E   E.
E||-------2-0-----------------------|-----------------5/--------------|
B||-0-----------3---2---3-----------|-1/------5/----------------------|
G||-------------------------2/------|---------------------------------|
D||-0-0-----------------------------|---------------------3-4---0-----|
A||-------------------------0-------|-3-------0-----------------------|
E||-----------2-----3---------------|---------------------------------|

Clear sailing from here on!

    E   E   E   E   E   E   E   E     E   E   E   E   E   E   E   E
E||---------------------------------|---------------------------------|
B||---------------------------------|---------------------------------|
G||---------------------------------|---------------------------------|
D||---------------------------------|---------------------------------|
A||-----0---0---0-------0---0---0---|-----0---0---0-------0---0---0---|
E||-4---------------4---------------|-4---------------4---------------|

    E   E   E   E   E   E   E   E     E   E   E   E   E   E   E   E
E||---------------------------------|---------------------------------|
B||---------------------------------|---------------------------------|
G||---------------------------------|---------------------------------|
D||---------------------------------|---------------------------------|
A||-----0---0---0-------0---0---0---|-----0---0---0-------0---0---0---|
E||-4---------------4---------------|-4---------------4---------------|

    S S E   E   E   S S E   E   E     E   E   Q       E   E   Q
E||---------------------------------|---------------------------------|
B||---------------------------------|---------------------------------|
G||---------------------------------|---------------------------------|
D||-------------0---1-1-1---0-------|---------------------------------|
A||-0-0-0---3-------------------3---|-0---0---3-------0---0---3-------|
E||---------------------------------|---------------------------------|

    S S E   E   E   S S E   E   E     W
E||---------------------------------|---------------------------------|
B||---------------------------------|---------------------------------|
G||---------------------------------|---------------------------------|
D||-------------0---1-1-1---0-------|---------------------------------|
A||-0-0-0---3-------------------3---|-0-------------------------------|
E||---------------------------------|---------------------------------|

    S S E   E   E   S S E   E   E     E   E   Q       E   E   Q
E||---------------------------------|---------------------------------|
B||---------------------------------|---------------------------------|
G||---------------------------------|---------------------------------|
D||-------------0---1-1-1---0-------|---------------------------------|
A||-0-0-0---3-------------------3---|-0---0---3-------0---0---3-------|
E||---------------------------------|---------------------------------|

    S S E   E   E   S S E   E   E     W                               x3 W
E||---------------------------------|---------------------------------||-5-
B||---------------------------------|---------------------------------||-5-
G||---------------------------------|--------------------------------*||-5-
D||-------------0---1-1-1---0-------|--------------------------------*||-7-
A||-0-0-0---3-------------------3---|-0-------------------------------||-7-
E||---------------------------------|---------------------------------||-5-

Login or Register to remove this ad.

3 comments on Chill

I played this through a

5

I played this through a couple times and turns out I *like* it! After listening to the example it's definitely muddle-able. I can muddle through it.

Although I heard a rumor that you added notes to the "electric solo"ish section?

Ahh, when I said "added", I

Ahh, when I said "added", I just meant that it has notes from the bass/harmony mixed in :-) I was commenting that it was amusing to me that you'd take that already ridiculously hard solo and add stuff to it.

This is hard enough as it is: http://www.auriplane.net/chillsolo.mp3

Took away notes, more like.

Took away notes, more like. :\

That part's tricky, so bye-bye went the harmony, and I eliminated about 3/4's of the bass line, and ended up with something I felt was playable at speed and sounded good. But then, that part was always going to be challenging, and just listening to the original tune I could tell that.

Hope everyone's happy with the finished tab all the same.