Ads

Title Theme (Double Dragon) Guitar Tab

Submitted: Aug 18, 2014 by ltm_1988

5
Average: 5 (1 vote)
Download | Listen
Game: Double Dragon
Composer(s): Kazunaka Yamane
Style: Arrangement, Fingerstyle

AutoScroll: Slow | Medium | Fast
Title
Double Dragon
Kazunaka Yamane
ltm_1988
8/16/2014

    E   E   E   E   E   E   E   E     E   E   E   E   E   E   E   E
E||-------------------------0-------|---------1-----------0---3-------|
B||---------3-----------1-----------|-----3-------1-------------------|
G||*0---3-------0---0---0---0---0---|-3-------0---0---0---0---0---0---|
D||*3---5---5---2-------------------|-3---5---------------------------|
A||---------------------------------|---------------------------------|
E||---------------------------------|---------------------------------|

    E   E   E   E   E   E   E   E     E   E   E   E   E   E   E   E
E||-------------------------0-------|---------1-----------0---3---8---|
B||---------3-----------1-----------|-----3-------1-------------------|
G||-0---3-------0---0---0---0---0---|-3-------0---0---0---0---0---0---|
D||-3---5---5---2-------------------|-3---5---------------------------|
A||---------------------------------|---------------------------------|
E||---------------------------------|---------------------------------|

    E   E   E   E   E   E   E   E     E   E   E   E   E   E   E   E
E||-------------------------0-------|---------1-----------0---3---8---|
B||---------3-----------1-----------|-----3-------1-------------------|
G||-0---3-------0---0---0---0---0---|-3-------0---0---0---0---0---0---|
D||-3---5---5---2-------------------|-3---5---------------------------|
A||---------------------------------|---------------------------------|
E||---------------------------------|---------------------------------|

     |-3-|   |-3-|   |-3-|   |-3-|     |-3-|   |-3-|
     E E E   E E E   E E E   E E E     E E E   E E E  Q       E   E
E||---------------------------------|----------0----------------------|
B||------------1--------------------|------2-----2----------------1---|
G||----------3---3-------------3----|----2---------2----------2-------|
D||----0-3---------------0---3------|--2------------------------------|
A||--3---3-----3-----3---3-----4-4--|--4---4-----4--------------------|
E||--6---------------6--------------|---------------------------------|

    E   E   E   E   E   E   E   S S   E   E   E   E   E   E   E   S S
E||---------------------1---0-------|---------------------3---1-----0-|
B||-3~----------------------------3-|-5~------------------------------|
G||---------------------------------|---------------------------------|
D||-0---0---0---0---0---0---0---0---|---------------------------------|
A||---------------------------------|-3---3---3---3---3---3---3---3---|
E||---------------------------------|---------------------------------|

    E   E   E   E   E   E   E   E     E   E   E   E   E   E   E   E
E||-1~------------------5---3---1---|-3-----------3~----------3---5---|
B||---------------------------------|---------3-----------------------|
G||---------------------------------|-0---0---0---0---0---0---0---0---|
D||-3---3---3---3---3---3---3---3---|---------------------------------|
A||---------------------------------|---------------------------------|
E||---------------------------------|---------------------------------|

    E   E   E   E   E   E   E   E     E   E   E   E   E   E   E   E
E||-6~--------------------------6---|-5~--------------------------5---|
B||---------------------6---6-------|---------------------6---6-------|
G||---------------------------------|---------------------------------|
D||---------------------------------|-7---7---7---7---7---7---7---7---|
A||---------------------------------|---------------------------------|
E||-6---6---6---6---6---6---6---6---|---------------------------------|

    S S S S S S S S S S S S S S S S   S S E   E   Q.          E   E
E||-3~------------------------------|---------------------------------|
B||---------------1-----1-3---1-3-5-|-----------------------------1---|
G||-0---2-3-0-2-3---2-3-0---3---0---|-----0---3---0-----------2-------|
D||-3-5-5---5---5---5-------5-------|-3-------------------------------|
A||---------------------------------|---------1-----------------------|
E||---------------------------------|-3-1-3-------3-------------------|

    E   E   E   E   E   E   E   S S   E   E   E   E   E   E   E   S S
E||---------------------1---0-------|---------------------3---1-----0-|
B||-3~----------------------------3-|-5~------------------------------|
G||---------------------------------|---------------------------------|
D||-0---0---0---0---0---0---0---0---|---------------------------------|
A||---------------------------------|-3---3---3---3---3---3---3---3---|
E||---------------------------------|---------------------------------|

    E   E   E   E   E   E   E   E     E   E   E   E   E   E   E   E
E||-1~------------------5---3---1---|-3-----------3~----------3---5---|
B||---------------------------------|---------3-----------------------|
G||---------------------------------|-0---0---0---0---0---0---0---0---|
D||-3---3---3---3---3---3---3---3---|---------------------------------|
A||---------------------------------|---------------------------------|
E||---------------------------------|---------------------------------|

    E   E   E   E   E   E   E   E     E   E   E   E   E   E   E   E
E||-6~--------------------------6---|-5~--------------------------5---|
B||---------------------6---6-------|---------------------6---6-------|
G||---------------------------------|---------------------------------|
D||---------------------------------|-7---7---7---7---7---7---7---7---|
A||---------------------------------|---------------------------------|
E||-6---6---6---6---6---6---6---6---|---------------------------------|

    S S S S S S S S S S E   E   E     E   E   E   E   E   E   E   E
E||-3~------------------3---6---8~--|---------------------------------|
B||---------------3-----3-------6~--|---------------------------------|
G||-----0-3---0-3---3-0-----7-------|---------------------------------|
D||-0-1-1---1---1---1---1---0-------|---------------------------------|
A||-6-------------------------------|---------------------------------|
E||-----------------------------8---|-----8---8---8---8---8---8---8---|

    E   E   E   E   E   E   E   E     E   E   E   E   S S E   E   E
E||-------------0-------0---3---1~--|---------------------------------|
B||-3-------3-------1-------1-------|-----3-------1-------------------|
G||-0-----------2-----------2---3~--|---------2-------0---3-------0---|
D||-----8---------------------------|-----0-------------------3-------|
A||---------------------------------|---------3---1-------3---1---0---|
E||---------------------------------|-----------------1-3-------------|

    E   E   E   E   E   E   E   E     E   E   E   E   E   E   E   E
E||-------------0-------0-------1~--|-----5-------3-------------------|
B||-3-------3-------1-------1---3~--|---------6-------5---6---5---1---|
G||-0---3-------2-------------------|---------------------0-------2---|
D||-----------------------------0---|-------------3-------------------|
A||-------------0-----------0-------|-------------------------0-------|
E||-3-------------------------------|-----1-----------3---------------|

    E   E   E   E   E   E   E   E     E   E   E   E   E   E   E   E
E||-------------0-------0---3---1~--|-------------------------1---3~--|
B||-3-------3-------1-------1---3~--|---------1-----------3---3---5~--|
G||-0---3-------2-------------------|-----3-------2---3---3-----------|
D||---------------------------------|---------------------------------|
A||-------------0-----------0---1---|---------1---------------1---3---|
E||-3-------------------------------|-----------------1---3-----------|

    E   S S S S S S S S S S S S E     S S S S S S S S S S S S S S S S x3 W
E||-----3---0-3-1-----1-0-----0-----|-----------------------0---0-1-3-||-3-
B||-------3-------1-3-------1-------|-----------1---1-3-1-3---3-------||-3-
G||-----------------------3---------|---2-3-2-3---3-------------------||-4-
D||-----------------------------5~--|---------------------------------||-5-
A||-----3---3---3---3---3---3---3---|-3---3---3---3---3---3---3---3---||-5-
E||---------------------------------|---------------------------------||-3-
Login or Register to remove this ad.