Mission 4 (Double Dragon II: The Revenge) Guitar Tab

Submitted: Aug 18, 2014 by ltm_1988 (Last updated: Aug 18, 2014)

0
Download | Listen
Game: Double Dragon II: The Revenge
Composer(s): Kazunaka Yamane
Style: Arrangement, Fingerstyle

This song is also called Undersea Base

AutoScroll: Slow | Medium | Fast
Undersea Base (Mission 4-1)
Double Dragon II: The Revenge
Kazunaka Yamane
ltm_1988
8/17/2014

    E   S S E   S S E   S S S S S S   E   S S E   S S S S S S S S S S
E||---------------------------------|-----------------------0---------|
B||-1---0-1-0---1---1---0-1-0-1-3-0-|-1---0-1-0---1---0---0-1-3-0---0-|
G||*2---0-2-0---2-0-2---0-2-0-2-4-0-|-2---0-2-0---2-0-0-0-0---4-0-2-0-|
D||*----7-------3-2-------------5---|-----7-------3-2---2---------3---|
A||-0-------3-------2---------------|-0-------3-------2---------------|
E||-------------------------3-------|-------------------------3-------|

    E   S S E   S S E   S S S S S S   E   S S E   S S E   S S E   S S
E||---------------------------------|-----------------0---0-0-1---0-1-|
B||-1---0-1-0---1---1---0-1-0-1-3-0-|-1---0-1-3---3-3-1---3-1-3---1-3-|
G||-2---0-2-0---2-0-2---0-2-0-2-4-0-|-2---5-2-4---2-4-----4-----------|
D||-----7-------3-2-----------------|-----5---0-------2---------------|
A||-0-------3-------2---------------|-3-----------------------3-------|
E||-------------------------3-------|---------------------------------|

    S S E   E   S S S S E   E   S S   E   S S S S S S S S S S S S S S
E||-3-1-3---1---0---1-0-1---0-------|---------------0-3-3-1-1-0-0-----|
B||---3-5---3---1-3-3-1-3---1---3-1-|-1---0-1-0-1-3---5-5-3-3-1-1-3-3-|
G||---------------4-----0-------4-2-|-----5-------5---------------4-4-|
D||-----3-------3---------------5---|---------------------2-------2---|
A||---------------------------------|-3-------3-----------------------|
E||-1-------1-------3-------3-------|-----------------0-------0-------|

    E   S S E   E   E   S S E   E     E   E   E   E   E   E   E   E   x4 W 
E||-------------0---1-----0---------|---------0-------5~--------------||-5-
B||-1-----3-----1---3-----1-----3---|-2-------2-------5~--------------||-5-
G||-2-----4-------------0-------4---|-2---2-------2-------2-------2--*||-5-
D||-----3-------3---------------5---|--------------------------------*||-7-
A||---------------------------------|-0-------0-------0-------0-------||-7-
E||-1-------1-------3-------3-------|---------------------------------||-5-
Login or Register to remove this ad.