Daisy (Doomsday Warrior) Bass Tab

Submitted: Apr 19, 2011 by soundsandstuff

0
Download | Listen
Game: Doomsday Warrior
Composer(s): Junta
Style: Transcription

AutoScroll: Slow | Medium | Fast
Doomsday Warrior
Platform: SNES/Super Nintendo Entertainment System
Developer/Publisher: LaserSoft, Renovation
Composed by: Junta

Bass Guitar Tab Created By: soundsandstuff channel www.youtube.com/user/soundsandstuff
Completed on: 4/18/11



Before playing tune the E string on your bass guitar down to drop C

======================================================================================================================================

Part A
G|-------------7------------------|-7-------------------4--7------------|-----------------------------3--4--------------|
D|----------9---------6---7---9---|-------------------------------------|-----------------4--5--------------------2-----|
A|-7--------------7---------------|---------------------------5---------|-7---6--7--------------------------2--2--------|
C|--------------------------------|-----7-------7----------------7------|-----------------------------------------------|


				    Part B
G|---------------------------------|---------------------------------|---------------------------------|
D|---------------------------------|-----2-------2-------2-------2---|-----5-------5-------5-------5---|
A|-5----3------5-----5--------6----|---------------------------------|---------------------------------|
C|---------------------------------|-4-------4-------4-------4-------|-7-------7-------7-------7-------|



G|---------------------------------|---------------------------------|---------------------------------|
D|-----2-------2-------2-------2---|-----0-------0-------0-------0---|-----2-------2-------2-------2---|
A|---------------------------------|---------------------------------|---------------------------------|
C|-4-------4-------4-------4-------|-2-------2-------2-------2-------|-4-------4-------4-------4-------|



G|---------------------------------|---------------------------------|---------------------------------|
D|-----5-------5-------5-------5---|-----2-------2-------2-------2---|-----0-------0-------0-------0---|
A|---------------------------------|---------------------------------|---------------------------------|
C|-7-------7-------7-------7-------|-4-------4-------4-------4-------|-2-------2-------2-------2-------|


Part C
G|---------------------------------|---------------------------------|---------------------------------|
D|---------------------------------|---------------------------------|-------------4-------0-------0---|
A|-------------7-------3-------3---|-------------7-------3-------3---|-----0---2-----------------------|
C|-0---7---9-----------------------|-0---7---9-----------------------|-2-------------------------------|



G|---------------------------------|---------------------------------|---------------------------------|
D|-------------4-------0---0-------|---------------------------------|---------------------------------|
A|-----0---2-------------------3---|L3-----------7-------3-------3---|-------------7-------3-------3---|
C|-2-------------------------------|-----0---9-----------------------|-0---7---9-----------------------|


								Part D
G|---------------------------------|---------------------------|------9-----------------------|
D|-------------4-------0-------0---|---------------------------|------------------2-------2---|
A|-----0---2-----------------------|-----------0-------1-------|-7--------7-----------2-------|
C|-2-------------------------------|-------2-------3-------4---|------------------------------|



G|-0-------------------------------|------------------------------|---------7-----------------------|
D|-------------------------5-------|------------------6-----------|---------------------------------|
A|---------------------------------|-7----6---7-----------7---5---|L5---5-------5-------5---5---7---|
C|-----7-------7-------7-------7---|------------------------------|---------------------------------|



G|---------------9-----------------------|-0---------------------------------|------------------1-----------|
D|-----8--9------------------2-------2---|-----------------------------------|-2----1---2-----------2---0---|
A|L7---------7-------------------2-------|---------------------4--5----------|------------------------------|
C|---------------------------------------|-----7-------7-------------7---2---|------------------------------|



G|---------------------------------|
D|-0-----------0-----0--------1----|
A|------3--------------------------|
C|---------------------------------| Repeat from Part B

===========================================================================================================================================
Notes:

- L = Tied Note

- Thank you for playing!
Login or Register to remove this ad.