Ads

The Pit (Doom 2) Guitar Tab

Submitted: Sep 04, 2009 by Iron Killer 2000

0
Download | Listen
Game: Doom 2
Composer(s): Bobby Prince
Style: Transcription
Series: Doom

AutoScroll: Slow | Medium | Fast
Level 9 "The Pit"
Doom 2
Tabbed by Kriss
Original Composer-Robert Prince

4/4   120bpm    Tuning EADGBE				 
|--------------------------|----------------------------|
|--------------------------|----------------------------|
|----------3--3------------|--------------------------3-|
|-0-3-3------------7-7-----|-5-5--3-5--3-2--0-3--3------|
|--------5------5-------5--|------------------------5---|
|--------------------------|----------------------------|


|---------------------------|---------------------------|
|---------------------------|---------------------------|
|--3------------------------|--------------3--3---------|
|-------7-7----5--5--3-5--3-|-2--0-3--3------------7-7--|
|----5-------5--------------|-----------5-------5-------|
|---------------------------|---------------------------|


|----------------------------|---------------------------|
|----------------------------|---------------------------|
|----------------------------|--3-3----------------------|
|---5--5-3--5--3-2--0-3--3---|----------7-7----5--5-3--5-|
|-5------------------------5-|-------5-------5-----------|
|----------------------------|---------------------------|


|---------------------------|---------------------------|
|---------------------------|---------------------------|
|-----------------3-3-------|---------------------------|
|-3--2--0-3--3-----------7--|-7----5--5-3--5-3--2-0--3--|
|--------------5-------5----|----5----------------------|
|---------------------------|---------------------------|


|----------------------------|--------------------------|
|----------------------------|--------------------------|
|------3-3-------------------|-------------------3-3----|
|-3-----------7--7----5--5-3-|--5-3--2-0-3-3------------|
|---5-------5------5---------|----------------5-------5-|
|----------------------------|--------------------------|


|--------------------------|----------------------------|
|--------------------------|----------------------------|
|--------------------------|--------3--3----------------|
|-7--7----5-5--3--5-3--2-0-|-3-3------------7--7----5-5-|
|------5-------------------|------5-------5------5------|
|--------------------------|----------------------------|


|---------------------------|--------------------------|
|---------------------------|--------------------------|
|----------------------3--3-|--------------------------|
|--3-5--3--2-0--3-3---------|----7--7----5-5--3-5--3-2-|
|--------------------5------|-5-------5----------------|
|---------------------------|--------------------------|


|---------------------------|---------------------------|
|---------------------------|---------------------------|
|-----------3--3------------|-------------------------3-|
|-0--3-3------------7-7-----|-5-5--3-5-3-2--0-3--3------|
|---------5------5-------5--|-----------------------5---|
|---------------------------|---------------------------|


|---------------------------|---------------------------|
|---------------------------|---------------------------|
|--3------------------------|--------------3--3---------|
|-------7-7----5--5--3-5--3-|-2--0-3--3------------7-7--|
|----5-------5--------------|-----------5-------5-------|
|---------------------------|---------------------------|


|----------------------------|---------------------------|
|----------------------------|---------------------------|
|----------------------------|---------------------------|
|---5--5-3--5--3-2-----------|--4-4----------------------|
|-5-----------------1-4--4---|----------8-8----6--6-4--6-|
|--------------------------6-|-------6-------6-----------|


|--------------------------|---------------------------|
|--------------------------|---------------------------|
|--------------------------|---------------------------|
|----------------4-4-------|---------------------------|
|-4--3-1-4--4-----------8--|-8----6--6-4--6-4--3-1-4---|
|-------------6-------6----|----6----------------------|


|----------------------------|--------------------------|
|----------------------------|--------------------------|
|----------------------------|--------------------------|
|------4-4-------------------|-------------------4-4----|
|-4-----------8--8----6--6-4-|--6-4--3-1-4-4------------|
|---6-------6------6---------|----------------6-------6-|


|---------------------------|----------------------------|
|---------------------------|----------------------------|
|---------------------------|--------3--3----------------|
|---------------------------|-3-3------------7--7----5-5-|
|-8--8----6-6--4--6-4--3-5--|------5-------5------5------|
|------6--------------------|----------------------------|


|---------------------------|---------------------------|
|---------------------------|---------------------------|
|----------------------3--3-|---------------------------|
|--3-5--3--2-0--3-3---------|----7--7----5-5--3-5--3-2--|
|--------------------5------|-5-------5-----------------|
|---------------------------|---------------------------|


|--------------------------|----------------------------|
|--------------------------|----------------------------|
|----------3--3------------|--------------------------3-|
|-0-3-3------------7-7-----|-5-5--3-5--3-2--0-3--3------|
|--------5------5-------5--|------------------------5---|
|--------------------------|----------------------------|


|---------------------------|--------------------|
|---------------------------|--------------------|
|--3------------------------|--------------------|
|-------7-7----5--5--3-5--3-|-2--0-3--3----------|
|----5-------5--------------|-----------4-----5--|
|---------------------------|--------------------|


|---------------------|--------------------|
|---------------------|--------------------|
|---------------------|--------------------|
|-3-3----------3--3---|---------------2--2-|
|------4-----5------4-|---4--(4)--(4)------|
|---------------------|--------------------|


|---------------------------|---------------------------|
|---------------------------|---------------------------|
|-----------------3-3-------|---------------------------|
|-2--2--0-3--3-----------7--|-7----5--5-3--5-3--2-0--3--|
|--------------5-------5----|----5----------------------|
|---------------------------|---------------------------|


|----------------------------|--------------------------|
|----------------------------|--------------------------|
|------3-3-------------------|-------------------3-3----|
|-3-----------7--7----5--5-3-|--5-3--2-0-3-3------------|
|---5-------5------5---------|----------------5-------5-|
|----------------------------|--------------------------|


|--------------------------|----------------------------|
|--------------------------|----------------------------|
|--------------------------|--------3--3----------------|
|-7--7----5-5--3--5-3--2-0-|-3-3------------7--7----5-5-|
|------5-------------------|------5-------5------5------|
|--------------------------|----------------------------|


|---------------1-1----5--5-|----6--6----5-5-----------|
|------------3-------3------|-3---------------6-8--6-5-|
|---------------------------|---------7----------------|
|--3-5--3--2----------------|--------------------------|
|---------------------------|--------------------------|
|---------------------------|--------------------------|


|----1-1----5--5----6-6-----|----------------------1--1----5-|
|-3-------3------3----------|-9-9-----8--6-5-(5)-3-------3---|
|------------------------7--|------10------------------------|
|---------------------------|--------------------------------|
|---------------------------|--------------------------------|
|---------------------------|--------------------------------|


|--5----6-6----5--5---------|-----1--1----5--5----6-6--|
|----3---------------6-8--6-|-5-3------3-------3-------|
|------------7--------------|--------------------------|
|---------------------------|--------------------------|
|---------------------------|--------------------------|
|---------------------------|--------------------------|


|---------------------1--1---|--5-5-----6-6----5--5------|
|---9--9-----8--6-5-3------3-|-------3--------------6--8-|
|-7------10------------------|---------------7-----------|
|----------------------------|---------------------------|
|----------------------------|---------------------------|
|----------------------------|---------------------------|


|--------1--1----5-5----6--|-6-----------------------1--|
|-6--5-3------3-------3----|------9--9-----8-6--5-3-----|
|--------------------------|----7------10---------------|
|--------------------------|----------------------------|
|--------------------------|----------------------------|
|--------------------------|----------------------------|


|-1----5-5----6--6----5--5---|------------1-1-----5-5----|
|---3-------3--------------6-|--8-6--5-3-------3-------3-|
|------------------7---------|---------------------------|
|----------------------------|---------------------------|
|----------------------------|---------------------------|
|----------------------------|---------------------------|


|-6--6-----------------------|-1-1----4--4----6--6--------|
|---------9-9------8-6--5-3--|------3-------3---------9-9-|
|------7-------10------------|---------------------7------|
|----------------------------|----------------------------|
|----------------------------|----------------------------|
|----------------------------|----------------------------|


|----------------1-1----4--4-|----6--6-------------------|
|-----8--6--5-3-------3------|-3----------9-9-----8--6-5-|
|--10------------------------|---------7-------10--------|
|----------------------------|---------------------------|
|----------------------------|---------------------------|
|----------------------------|---------------------------|


|----1-1----4--4----6-6-----|----------------------1--1----4-|
|-3-------3------3----------|-9-9-----8--6-5-(5)-3-------3---|
|------------------------7--|------10------------------------|
|---------------------------|--------------------------------|
|---------------------------|--------------------------------|
|---------------------------|--------------------------------|


|--4----6-6------------------|-----1--1----5--5----6-6--|
|----3---------9--9-----8--6-|-5-3------3-------3-------|
|------------7-------10------|--------------------------|
|----------------------------|--------------------------|
|----------------------------|--------------------------|
|----------------------------|--------------------------|


|---5--5-------------1--1---|--5-5-----6-6---------------|
|--------6--8--6-5-3------3-|-------3---------9--9-----8-|
|-7-------------------------|---------------7------10----|
|---------------------------|----------------------------|
|---------------------------|----------------------------|
|---------------------------|----------------------------|


|--------1--1----5-5----6--|-6----5--5--------------1--|
|-6--5-3------3-------3----|-----------6--8-6--5-3-----|
|--------------------------|----7----------------------|
|--------------------------|---------------------------|
|--------------------------|---------------------------|
|--------------------------|---------------------------|


|-1----5-5----6--6------------|-----------1-1-------|
|---3-------3---------9--9----|--8-6--5-3------2----|
|------------------7-------10-|---------------------|
|-----------------------------|---------------------|
|-----------------------------|---------------------|
|-----------------------------|---------------------|


|----1--1---------|-1-1-----------|------------------1-1----5--5-|
|--3------2-----3-|------2---2----|-(2)-5-5--5--5-3-------3------|
|-----------------|---------------|------------------------------|
|-----------------|---------------|------------------------------|
|-----------------|---------------|------------------------------|
|-----------------|---------------|------------------------------|


|----6--6----5-5-----------|----1-1----5--5----6-6-----|
|-3---------------6-8--6-5-|-3-------3------3----------|
|---------7----------------|------------------------7--|
|--------------------------|---------------------------|
|--------------------------|---------------------------|
|--------------------------|---------------------------|


|----------------------1--1----5-|--5----6-6----5--5---------|
|-9-9-----8--6-5-(5)-3-------3---|----3---------------6-8--6-|
|------10------------------------|------------7--------------|
|--------------------------------|---------------------------|
|--------------------------------|---------------------------|
|--------------------------------|---------------------------|


|-----1--1----5--5----6-6--|----------------------|-----|
|-5-3------3-------3-------|---9--9-----8--6-5----|-----|
|--------------------------|-7------10------------|-----|
|--------------------------|----------------------|-----|
|--------------------------|----------------------|-----|
|--------------------------|----------------------|-----|


|---------|----------1--|-1----5-5----6--6----5--5----|
|---------|-------3-----|---3-------3--------------6--|
|---------|-------------|------------------7----------|
|---------|-------------|-----------------------------|
|---------|-------------|-----------------------------|
|---------|-------------|-----------------------------|


|------------1-1-----5-5----|-6--6-----------------------|
|--8-6--5-3-------3-------3-|---------9-9------8-6--5-3--|
|---------------------------|------7-------10------------|
|---------------------------|----------------------------|
|---------------------------|----------------------------|
|---------------------------|----------------------------|


|-1-1----5--5----6--6----5-5-|---------------1-1----5--5-|
|------3-------3-------------|--6-8--6--5-3-------3------|
|---------------------7------|---------------------------|
|----------------------------|---------------------------|
|----------------------------|---------------------------|
|----------------------------|---------------------------|


|----6--6-------------------|----1-1----5--5----6-6-----|
|-3----------9-9-----8--6-5-|-3-------3------3----------|
|---------7-------10--------|------------------------7--|
|---------------------------|---------------------------|
|---------------------------|---------------------------|
|---------------------------|---------------------------|


|-5-5-----------------1--1----5-|--5----6-6------------------|
|------6-8--6-5-(5)-3-------3---|----3---------9--9-----8--6-|
|-------------------------------|------------7-------10------|
|-------------------------------|----------------------------|
|-------------------------------|----------------------------|
|-------------------------------|----------------------------|


|-----1--1----4--4----6-6--|---------------------1--1----|
|-5-3------3-------3-------|---9--9-----8--6-5-3------3--|
|--------------------------|-7------10-------------------|
|--------------------------|-----------------------------|
|--------------------------|-----------------------------|
|--------------------------|-----------------------------|


|--4-4-----6-6---------------|--------1--1----4-4----6--|
|-------3---------9--9-----8-|-6--5-3------3-------3----|
|---------------7------10----|--------------------------|
|----------------------------|--------------------------|
|----------------------------|--------------------------|
|----------------------------|--------------------------|


|-6-----------------------1--|-1----4-4----6--6------------|
|------9--9-----8-6--5-3-----|---3-------3---------9--9----|
|----7------10---------------|------------------7-------10-|
|----------------------------|-----------------------------|
|----------------------------|-----------------------------|
|----------------------------|-----------------------------|


|------------1-1-----5-5----|-6--6----5-5---------------|
|--8-6--5-3-------3-------3-|--------------6--8-6--5-3--|
|---------------------------|------7--------------------|
|---------------------------|---------------------------|
|---------------------------|---------------------------|
|---------------------------|---------------------------|


|-1-1----5--5----6--6--------|----------------1-1----5--5-|
|------3-------3---------9-9-|-----8--6--5-3-------3------|
|---------------------7------|--10------------------------|
|----------------------------|----------------------------|
|----------------------------|----------------------------|
|----------------------------|----------------------------|


|----6--6----5-5-----------|----1-1----5--5----6-6-----|
|-3---------------6-8--6-5-|-3-------3------3----------|
|---------7----------------|------------------------7--|
|--------------------------|---------------------------|
|--------------------------|---------------------------|
|--------------------------|---------------------------|


|----------------------1--1-----|-------1-1-------|
|-9-9-----8--6-5-(5)-3-------2--|----3-------2----|
|------10-----------------------|-----------------|
|-------------------------------|-----------------|
|-------------------------------|-----------------|
|-------------------------------|-----------------|


|----1--1-------------|-------------------1--1----|
|--3------2----2-(2)--|-(2)--5--5--5-5--3------3--|
|---------------------|---------------------------|
|---------------------|---------------------------|
|---------------------|---------------------------|
|---------------------|---------------------------|


|--5-5-----6-6----5--5------|--------1--1----5-5----6--|
|-------3--------------6--8-|-6--5-3------3-------3----|
|---------------7-----------|--------------------------|
|---------------------------|--------------------------|
|---------------------------|--------------------------|
|---------------------------|--------------------------|


|-6-----------------------1--|-1----5-5----6--6----5--5---|
|------9--9-----8-6--5-3-----|---3-------3--------------6-|
|----7------10---------------|------------------7---------|
|----------------------------|----------------------------|
|----------------------------|----------------------------|
|----------------------------|----------------------------|


|------------1-1-----5-5----|-6--6---------------------*|
|--8-6--5-3-------3-------3-|---------9-9------8-6--5--*|
|---------------------------|------7-------10----------*|
|---------------------------|--------------------------*|
|---------------------------|--------------------------*|
|---------------------------|--------------------------*|
Login or Register to remove this ad.