Ads

Main Theme (Don't Starve) Guitar Tab

Submitted: Jun 09, 2015 by Shargus (Last updated: Jun 11, 2015)

4.666665
Average: 4.7 (3 votes)
Download | Listen
Game: Don't Starve
Composer(s): Vince de Vera, Jason Garner
Style: 2 or more instruments, Arrangement, Fingerstyle

Click here for a video example.

AutoScroll: Slow | Medium | Fast
Don't Starve - Main Theme
Music by Vince de Vera & Jason Garner

Arranged and tabbed by Tommaso Monopoli
Like my band's page on Facebook! https://www.facebook.com/pages/Eleuthera/907815342581466?fref=ts

This arrangement is supposed to be played by two guitars (rhythm and lead)
You can also see the Guitar Pro file I made for this song.
This is my first arrangement ever, so comments/corrections are really appreciated! :)

DROP D TUNING!
Tempo = 130 (3/4)


Rhythm Guitar (2x 32 bars)

E |--------3--6--3-------|--------3-----3-------|--------3--6--3-------|
B |--------3-----3-------|--------3-----3-------|--------3-----3-------|
G |----------------------|--------3-----3-------|----------------------|
D |----------------------|----------------------|----------------------|
A |----------------------|----------------------|----------------------|
D |--5-------------------|--0-------------------|--5-------------------|


--------3-----3-------|----------------------|----------------------|
--------3-----3-------|--------3--4--3-------|--------3-----3-------|
--------3-----3-------|--------2-----2-------|--------2-----2-------|
----------------------|----------------------|--------4-----4-------|
----------------------|----------------------|--0-------------------|
--0-------------------|--0-------------------|----------------------|


----------------------|----------------------|----------------------|
--------3--4--3-------|--------3-----3-------|--------4-----4-------|
--------2-----2-------|--------2-----2-------|--------5-----5-------|
----------------------|--------4-----4-------|--------5-----5-------|
----------------------|--0-------------------|--3-------------------|
--0-------------------|----------------------|----------------------|


----------------------|----------------------|----------------------|
--------4-----4-------|--------3-----3-------|--------3-----3-------|
--------5-----5-------|--------3-----3-------|--------3-----3-------|
--------5-----5-------|--------3-----3-------|--------3-----3-------|
----------------------|--1-------------------|----------------------|
--5-------------------|----------------------|--3-------------------|


----------------------|----------------------|----------------------|
--------3-----3-------|--------4-----4-------|----------------------|
--------2-----2-------|--------2-----2-------|----------------------|
--------4-----4-------|--------4-----4-------|----------------------|
--0-------------------|----------------------|----------------------|
----------------------|--2-------------------|--0-------------------|


----------------------|--------3--6--3-------|--------3-----3-------|
----------------------|--------3-----3-------|--------3-----3-------|
----------------------|----------------------|--------3-----3-------|
----------------------|----------------------|----------------------|
----------------------|----------------------|----------------------|
--0-------------------|--5-------------------|--0-------------------|


--------3--6--3-------|--------3-----3-------|----------------------|
--------3-----3-------|--------3-----3-------|--------3--4--3-------|
----------------------|--------3-----3-------|--------2-----2-------|
----------------------|----------------------|----------------------|
----------------------|----------------------|----------------------|
--5-------------------|--0-------------------|--0-------------------|


----------------------|----------------------|----------------------|
--------3-----3-------|--------3--4--3-------|--------3-----3-------|
--------2-----2-------|--------2-----2-------|--------2-----2-------|
--------4-----4-------|----------------------|--------4-----4-------|
--0-------------------|----------------------|--0-------------------|
----------------------|--0-------------------|----------------------|


----------------------|----------------------|----------------------|
--------4-----4-------|--------4-----4-------|--------3-----3-------|
--------5-----5-------|--------5-----5-------|--------3-----3-------|
--------5-----5-------|--------5-----5-------|--------3-----3-------|
--3-------------------|----------------------|--1-------------------|
----------------------|--5-------------------|----------------------|


----------------------|----------------------|----------------------|
--------3-----3-------|--------3-----3-------|--------4-----4-------|
--------3-----3-------|--------2-----2-------|--------2-----2-------|
--------3-----3-------|--------4-----4-------|--------4-----4-------|
----------------------|--0-------------------|----------------------|
--3-------------------|----------------------|--2-------------------|


----------------------|----------------------|
----------------------|----------------------|
----------------------|----------------------|   and again...
----------------------|----------------------|
----------------------|----------------------|
--0-------------------|--0-------------------|



Lead Guitar (2x 32 bars)

E |-------------|-------------|-------------|-------------|-------------|
B |-------------|-------------|-------------|-------------|-------------|
G |-------------|-------------|-------------|-------------|-------------|
D |-------------|-------------|-------------|-------------|-------------|
A |-------------|-------------|-------------|-------------|-------------|
E |-------------|-------------|-------------|-------------|-------------|


-------------|-------------|-------------|-------|-------|-------|-------|
-------------|-------------|-------------|--1----|--3----|--4----|--3----|
-------------|-------------|-------------|-------|-------|-------|-------|
-------------|-------------|-------------|-------|-------|-------|-------|
-------------|-------------|-------------|-------|-------|-------|-------|
-------------|-------------|-------------|-------|-------|-------|-------|


-------------|-------|----------------------|-------|-------------|
-------------|-------|--3--------------4----|--3----|-----11-10---|
--2--3-------|--2----|----------------------|-------|-------------|
-------------|-------|----------------------|-------|-------------|
-------------|-------|----------------------|-------|-------------|
-------------|-------|----------------------|-------|-------------|


--10-11-13---|--11----10---|-------------|-------------|--9----------|-------|
-------------|-------------|--10----11---|-----13------|--------11---|--10---|
-------------|-------------|-------------|-------------|-------------|-------|
-------------|-------------|-------------|-------------|-------------|-------|
-------------|-------------|-------------|-------------|-------------|-------|
-------------|-------------|-------------|-------------|-------------|-------|


-------------|-------------|-------------|----------------------|
-------------|--11----10---|-------------|----------------------|
-------------|-------------|--11----12---|----------------------|
-------------|-------------|-------------|--------13-------12---|
-------------|-------------|-------------|----------------------|
-------------|-------------|-------------|----------------------|


----------------------|-------------|-------------|-------|
----------------------|-------------|-------------|-------|
----------------------|-------------|--------10---|--11---|   and again...
--------13-------12---|--11----12---|--13---------|-------|
----------------------|-------------|-------------|-------|
----------------------|-------------|-------------|-------|
Login or Register to remove this ad.