Login or Register to remove this ad.

Level 1 (Donkey Kong) Guitar Tab

Submitted: Feb 02, 2010 by hslesperance (Last updated: Mar 30, 2014)

0
Download | Listen
Game: Donkey Kong
Style: Transcription
Series: Donkey Kong

AutoScroll: Slow | Medium | Fast
Level 1
Donkey Kong
Composed by Shigeru Miyamoto
Tabbed by hslesperance
9/20/08

Standard Tuning

Repeat throughout the song

e-----------------------------------
B-----------------------------------
G-----------------------------------
D-----------3-5-3----------3-5-3----
A---1----5---------1----5-----------
E-----------------------------------
Login or Register to remove this ad.

4 comments on Level 1

Wouldn't it be like this? I

Wouldn't it be like this? I could be wrong, but this sounds a lot better.
e-----------------------------------
B-----------------------------------
G-----------------------------------
D-----------3-5-3----------3-5-3----
A---1----5---------1----5-----------
E-----------------------------------

-----------------------------

-----------------------------
-----------------------------
-----------------------------
---------3-5-3---------3-5-3-
------5-------------5--------
-6-------------6-------------

I put the 353 on the wrong

I put the 353 on the wrong string. Thanks for that catching the mistake.

no problem!

no problem!