Ads

Intro (Donkey Kong) Guitar Tab

Submitted: Sep 25, 2011 by auriplane

5
Average: 5 (5 votes)
Download | Listen
Game: Donkey Kong
Style: Arrangement, Fingerstyle
Series: Donkey Kong

AutoScroll: Slow | Medium | Fast
                           Donkey Kong - Intro GUITAR TAB
                            Composed by Shigeru Miyamoto

                 Arranged & tabbed by Auriplane ([email protected])


This is a pretty simple arrangement, but I think it sounds okay :-D

Capo on 3, if you like.


     E  E     E  E  E  E  E  E  E  E     E  E  E  E  E  E  E  E   
e||--------|--2-----------------------|--------------------------|
B||--------|-----------------2--5--3--|--------------------------|
G||--2--2--|--------2-----2-----------|--4-----------------4--4--|
D||--------|-----4-----4--------------|--------2-----2-----------|
A||--------|--5-----------------------|-----2-----2-----2--------|
E||--------|--------------------------|--3-----------------------|


  E  E  E  E  E  E  E  E     E  E  E  E  E  E  E  E     E  E  E  E  E  E  E  E   
--3--------------0--2--0--|--------------------------|--5--------------2--3--5--|
--------------------------|--2-----------------2--2--|-----2--------------------|
--------0-----0-----------|--------------------------|-----------2--------------|
-----2-----2--------------|--------2-----2-----------|--4--------------4--------|
--------------------------|-----4-----4-----4--------|--------4-----0-----------|
--0-----------------------|--5-----------------------|--------------------2-----|


  E  E  E  E  E  E  E  E     E  E  S S S S E  E  E  E     E  E  S S S S Q    Q      
--7--------------------0--|--2-------------------------|--------------------------||
-----3-----0--------3-----|-------------------2--3--5--|--3-----------------------||
--0--------------0--------|--2-----2-------2-----------|--------2-----------------||
--------0-----------------|-----0----5-4-5-------------|----------5-4-2-----------||
--------------2-----------|----------------------------|-----5----------5---------||
--------------------3-----|----------------------------|--------------------------||




Duration Legend
---------------
W - whole
H - half
Q - quarter
E - 8th
S - 16th

Login or Register to remove this ad.

3 comments on Intro

It showed up twice, so I

It showed up twice, so I tried deleting it and re-making it, but it did it again. I think Donkey Kong is magic.

The same thing happened with

The same thing happened with tetris submissions before I fixed it. There are two versions of donkey kong listed for arcade and NES. I'll have to fix this game too

Nice one.

5

Nice one.