Ads

Jungle Hijinx (Donkey Kong Country) Guitar Tab

Submitted: Jul 07, 2010 by ZizzlinA

3.25
Average: 3.3 (4 votes)
Download | Listen
Game: Donkey Kong Country
Composer(s): Dave Wise, Robin Beanland, Eveline Fischer
Style: Transcription
Series: Donkey Kong

This song is also called DK Island Swing

AutoScroll: Slow | Medium | Fast
-----------------------------------------------------------------------
			    Jungle Hijinx – Dave Wise

Song Name: Jungle Hijinx
Video Game: Donkey Kong Country
Composer: David Wise
Tabbed by: Aziz Razavi
Email: [email protected]
Date: July 03, 2010

Tuning: Standard

 Music starts at 0:32

e|----|-----|----|----------------------------------------|-5-5-|-7-7-|
B|----|-3-3-|-3-3-|-3-3-|---------------------------------|-5-5-|-7-7-|
G|-2-2|-2-2-|-5-5-|-4-4-|---------------------------------|-5-5-|-7-7-|
D|-2-2|-----|-5-5-|-5-5-|---------------------------------|-----|-----|
A|----|-----|-----|-----|-0-0--------------0-0-----3-2-0--|-----|-----|
E|----|-----|-----|-----|----0-0-1-1-3-1-3----0-0-1-----3-|-----|-----|

                           Piano Solo                  main melody

e|-8-8-|-7-7-|-------------15--15--15----------------|--------12-------
B|-8-8-|-7-7-|---13-15-/-17--17--17--17-17-\-15-13---|---13-15-------13
G|-9-9-|-7-7-|-14---------------------------------14-|-14-------13-14--
D|-----|-----|---------------------------------------|-----------------
A|-----|-----|---------------------------------------|-----------------
E|-----|-----|---------------------------------------|-----------------



e|--12--------12-------------------------------------------------------
B|15-----13-15--15-13-15-----12-15--------12-15-16-17-16-17-16-15-13-12
G|-----14---------------13-14-----14-13-14-----------------------------
D|---------------------------------------------------------------------
A|---------------------------------------------------------------------
E|---------------------------------------------------------------------

          Reply #1

e|---|-------------------|---------12----------12--------12--------|----
B|-13|---------17-16-13--|----13-15-------13-15-----13-15--15-13-15|----
G|---|-14-13-14--------14|-14--------13-14--------14---------------|----
D|---|-------------------|-----------------------------------------|----
A|---|-------------------|-----------------------------------------|----
E|---|-------------------|-----------------------------------------|----																																									





   Reply #2                                                After bongo 																																									
e|-----------------------------------------------------17|-------------
B|-12-15-12----------------------------------------------|---------15--
G|---------14-13--12-13-15-12---------------11-12-13-14--|-13-14-16----
D|---------------------------13--12-13-14-15-------------|-------------
B|-------------------------------------------------------|-------------
A|-------------------------------------------------------|-------------
E|-------------------------------------------------------|-------------



e|---------|-------------------------------------------------------|---
B|---------|-14-h-15-p-14-h-15-p14-h-15-14-h-15-p-14-h-15-p-14-h-15|---
G|-17-16-17|-------------------------------------------------------|---
D|---------|-------------------------------------------------------|---
A|---------|-------------------------------------------------------|---
E|---------|-------------------------------------------------------|---

                          
                          ~
e|---------15-17-18-----------------17-18------------------------------
B|---------------------------------------18----------------------------
G|-12-14-15--------12-14-15--14-15----------14-15---14-15--14-15--14-15
D|--------------------------------15-------------15------15-----15-----
A|---------------------------------------------------------------------
E|---------------------------------------------------------------------



e|--------|
B|--------|
G|-14-15—-|
D|------15|
A|--------|
E|--------|


| /  slide up
| \  slide down
| h  hammer-on
| p  pull-off
| ~  vibrato
| +  harmonic
| x  Mute note
Login or Register to remove this ad.