Gangplank Galleon (Donkey Kong Country) Guitar Tab

Submitted: Jun 29, 2013 by JordanVS

5
Average: 5 (8 votes)
Download | Listen
Game: Donkey Kong Country
Composer(s): Dave Wise, Robin Beanland, Eveline Fischer
Style: Arrangement, Fingerstyle
Series: Donkey Kong

This song is also called Final Boss Theme / King K. Rool

AutoScroll: Slow | Medium | Fast
Gangplank Galleon                                                     
Final Boss Theme/King K. Rool 
Donkey Kong Country 
David Wise 
JordanVS


*Capo on the 5th fret 

-On the () notes just play them with your thumb trying 
to maintain the rhythm with the chord and the melody 
ringing.See Igor Presnyakov cover of "The Final Countdown" 
to get the idea!



     Q    E  S  S S  S S S  S S S S    E  E  Q    Q.     E     E  S S E  S S S S S S E  E   
E||---------------------------------|-----0-------3------1--|--0--0---0--0---0---0-1-3--0--|
B||----------1p-0--------0h-1-0---0-|--1-----1--------------|-------3------3---3-----------|
G||---------------2p-0-2--------2---|-------------0---------|------------------------------|
D||---------------------------------|--------2--------------|---------2--------------2-----|
A||---------------------------------|--3--------------------|--3-------------3-------------|
E||---------------1---------3-------|-------------3---------|------------------------------|


  E  S  S E  S  S S  S S S E  E     E  S S E  S S S S S S S S S S    S  S S S S S S S E  E  Q         H         
---------------------------0-----|--0--0---0--0---0---0-1-3-1-0---|-----------0-------0--3--0----|-------------|
--1--1p-0-1--1p-0-1p-0-1-3----1--|-------3------3---3-----------3-|--1p-0-1-3---3-1-3------------|--0g1--------|
---------------------------------|--------------------------------|-------------------------0----|-------------|
---------------------------------|---------2--------------2-------|-------------------------2----|-------------|
----------3----------------3-----|--3-------------3---------------|-------------------3----------|--2g3--------|
--1---------------1--------------|--------------------------------|--1--------3------------------|-------------|


  E  S  S E  S  S S  S  S S E  E     E  S S S S  S  S E  S  S S S S  S    E  S  S E  S  S S  S  S S E  E   
----------------------------------|----------------------0h-1-0--------|----------------------------------|
--------------------------0-1-----|-----------------------------3-1p-0-|--------------------------0-1-----|
--2--2p-0-2--2p-0-2p-0h-2------2--|--0--0---0---------0-------2--------|--2--2p-0-2--2p-0-2p-0h-2------2--|
----------------------------------|-------3---3p-2h-3------------------|----------------------------------|
----------3-----------------3-----|--3----------------3-------0--------|----------3-----------------3-----|
--1---------------1---------------|---------0--------------------------|--1---------------1---------------|


  S  S S S  E  E  S  S S S S S S  S    E  S  S E  S  S  S  S  S  S E  E     E  S  S  E  S  S  S  S  S S  E  E   
---------------------------0--------|------------------------------0-----|-------------------------------------|
---------0h-1-----3p-0---0---3-1p-0-|--1--1p-0-1--1p-0h-1p-0h-1h-3----1--|----------------------------0h-1-----|
--2p-0-2-------2-------3------------|------------------------------------|--2--2p-0h-2--2p-0h-2p-0h-2-------2--|
------------4-----------------------|--2---------------------------------|-------------------------------------|
------------------------------------|--0---------------------------------|--0----------------------------------|
--2---------------3--------4--------|------------------------------------|-------------------------------------|


  W                   E  S S E  S S S S S S E  S S    E  S S E  S S S S S S E  S S    E  S S E  S S S S S S E  S S  
-------------------|-------------------------------|-------------------------------|-------------------------------|
-------------------|-------------------------------|-------------------------------|-------------------------------|
--L----------------|-------------------------------|-------------------------------|-------------------------------|
-------------------|-------------------------------|-------------------------------|-------------------------------|
--L----------------|--0--0-0-0--0-0-0-0-0-0-0--0-0-|-------------------------------|-------------------------------|
-------------------|-------------------------------|--1--1-1-1--1-1-1-1-1-1-1--1-1-|--3--3-3-3--3-3-3-3-3-3-3--3-3-|


                              *Segno
                                  ^                                         ^            
  E  S S E  S S S S S S S E.      E    S   S   E    S   S   S   S   S   S   E    S   S   
------------------------------|---0-----------------------------------------3-----------|
------------------------------|---1-----------------------------------------1-----------|
------------------------------|---2-----------------------------------------2-----------|
------------------------------|--(2)--(2)-(2)-(2)--(2)-(2)-(2)-(2)-(2)-(2)-(2)--(2)-(2)-|
------------------------------|---0----0---0---0----0---0---0---0---0---0---0----0---0--|
--5--5-5-5--5-5-5-5-5-5-5-3---|---------------------------------------------------------|


   ^                                         ^               ^                                         ^            
   E    S   S   E    S   S   S   S   S   S   E    S   S      E    S   S   E    S   S   S   S   S   S   E    S   S   
---------------------------------------------0-----------|---------------------------------------------------------|
---1-----------------------------------------------------|---3-----------------------------------------------------|
---2-----------------------------------------2-----------|---4-----------------------------------------4-----------|
---3-----------------------------------------3-----------|---5-----------------------------------------5-----------|
--(3)--(3)-(3)-(3)--(3)-(3)-(3)-(3)-(3)-(3)-(3)--(3)-(3)-|--(5)--(5)-(5)-(5)--(5)-(5)-(5)-(5)-(5)-(5)-(5)--(5)-(5)-|
---1----1---1---1----1---1---1---1---1---1---1----1---1--|---3----3---3---3----3---3---3---3---3---3---3----3---3--|


   ^                                                    ^                                         ^            
   E    S   S   E    S   S   S   S   S   S   S  E.      E    S   S   E    S   S   S   S   S   S   E    S   S   
----------------------------------------------------|---0-----------------------------------------3-----------|
----------------------------------------------------|---1-----------------------------------------1-----------|
------------------------------------------------4---|---2-----------------------------------------2-----------|
---7--------------------------------------------5---|--(2)--(2)-(2)-(2)--(2)-(2)-(2)-(2)-(2)-(2)-(2)--(2)-(2)-|
--(7)--(7)-(7)-(7)--(7)-(7)-(7)-(7)-(7)-(7)-(7)-5---|---0----0---0---0----0---0---0---0---0---0---0----0---0--|
---5----5---5---5----5---5---5---5---5---5---5--3---|---------------------------------------------------------|


   ^                                         ^               ^                                         ^            
   E    S   S   E    S   S   S   S   S   S   E    S   S      E    S   S   E    S   S   S   S   S   S   E    S   S   
---------------------------------------------0-----------|---------------------------------------------3-----------|
---1-----------------------------------------------------|---3-----------------------------------------3-----------|
---2-----------------------------------------2-----------|---4-----------------------------------------4-----------|
---3-----------------------------------------3-----------|---5-----------------------------------------5-----------|
--(3)--(3)-(3)-(3)--(3)-(3)-(3)-(3)-(3)-(3)-(3)--(3)-(3)-|--(5)--(5)-(5)-(5)--(5)-(5)-(5)-(5)-(5)-(5)-(5)--(5)-(5)-|
---1----1---1---1----1---1---1---1---1---1---1----1---1--|---3----3---3---3----3---3---3---3---3---3---3----3---3--|


   ^                                                                                                     
   E    S   S   E    S   S   S   S   S   S   S  E.     E  E   E  E  Q    Q       E  E   E  E  Q    Q     
---5------------------------------------------------|--0------L----------3----|--------------------3----|
---5------------------------------------------------|--1------L--1-------3----|--1------L----------3----|
---5--------------------------------------------4---|---------2-----2---------|--2------L--2------------|
---7--------------------------------------------5---|-----2-------------------|---------3-----3---------|
--(7)--(7)-(7)-(7)--(7)-(7)-(7)-(7)-(7)-(7)-(7)-5---|--0----------------------|-----3-------------------|
---5----5---5---5----5---5---5---5---5---5---5--3---|-------------------------|--1----------------------|


  E  E   E  E  Q    Q       E  E  E  E  H           S S S S Q    H           S S S S Q    H         
--------------------3----|--5-----------L--------|------------------------|------------------------|
--0------L----------3----|--5-----------5--------|--1---------------------|--1---------------------|
--0------L--0------------|-----------5-----------|--2---------------------|--2---------------------|
---------0-----0---------|--------7--------------|--2---------------------|--3---------------------|
-----2-------------------|-----7-----------------|--0-0-0-0-0-------------|------------------------|
--3----------------------|--5--------------------|------------------------|--1-1-1-1-1-------------|


  S S S S Q    H           E  S S E  S S S S S S S E.     S S S S Q    H           S S S S Q    H         
------------------------|------------------------------|--5---------------------|--5---------------------|
--1---------------------|--1---------------------------|--5---------------------|--1---------------------|
--0---------------------|--2---------------------------|--5---------------------|--2---------------------|
--0---------------------|--2---------------------------|------------------------|------------------------|
------------------------|--0--0-0-0--0-0-0-0-0-0-0-----|--0-0-0-0-0-------------|------------------------|
--3-3-3-3-3-------------|--------------------------3---|------------------------|--1-1-1-1-1-------------|


  S S S S Q    H           E  S S E  S S S S S S S E.     E  S  S E  S  S S  S S  S S S E   
--5---------------------|--5---------------------------|------------------------------3----|
--3---------------------|--5---------------------------|--5--5p-3-5--5p-3-5p-3-5p-3-5------|
--4---------------------|--5---------------------------|--5---------------------------5----|
------------------------|------------------------------|-----------------------------------|
------------------------|--0--0-0-0--0-0-0-0-0-0-0-----|--0--0----0--0----0----0----0---0--|
--3-3-3-3-3-------------|--------------------------3---|-----------------------------------|


  E  S  S E  S  S S  S S  S S S E     E  S  S E  S  S S  S S  S E  E     E  S S E  S S S S S S S E.   
------------------------------3----|----------------------------0--0--|--0---------------------------|
--1--1p-0-1--1p-0-1p-0-1p-0-1------|--3--3p-1-3--3p-1-3p-1-3p-1-1--1--|--1---------------------------|
--2---------------------------2----|--0-------------------------------|--2-----------------------0---|
-----------------------------------|----------------------------------|------------------------------|
-----------------------------------|----------------------------------|--0--0-0-0--0-0-0-0-0-0-0-----|
--1--1----1--1----1----1----1---1--|--3--3----3--3----3----3----3--3--|--------------------------3---|


  E  S  S E  S  S S  S S  S S S E     E  S  S E  S  S S  S S  S S S E     E  S  S E  S  S S  S S  S E  E   
------------------------------3----|------------------------------3----|----------------------------0--0--|
--5--5p-3-5--5p-3-5p-3-5p-3-5-5----|--1--1p-0-1--1p-0-1p-0-1p-0-1-3----|--3--3p-1-3--3p-1-3p-1-3p-1-1--1--|
--5--5p-4-5--5p-4-5p-4-5p-4-5------|--2--2p-0-2--2p-0-2p-0-2p-0-2------|--0--0--0-0--0--0-0--0-0--0-------|
-----------------------------------|-----------------------------------|----------------------------------|
--0--0----0--0----0----0----0---0--|-----------------------------------|----------------------------------|
-----------------------------------|--1--1----1--1----1----1----1---1--|--3--3----3--3----3----3----3--3--|


   ^                                                                                                   
   E    S   S   E    S   S   S   S   S   S   S  E.     S S S S Q    H           S S S S Q    H         
---0------------------------------------------------|------------------------|------------------------|
---1------------------------------------------------|--1-1-1-1-1-------------|--1-1-1-1-1-------------|
---2--------------------------------------------0---|--2-2-2-2-2-------------|--2-2-2-2-2-------------|
--(2)--(2)-(2)-(2)--(2)-(2)-(2)-(2)-(2)-(2)-(2)-0---|--2-2-2-2-2-------------|--3-3-3-3-3-------------|
---0----0---0---0----0---0---0---0---0---0---0------|--0---------------------|------------------------|
------------------------------------------------3---|------------------------|--1---------------------|


  S S S S Q    H           E  S S E  S S S S S S S E.     S S S S Q    H           S S S S Q    H         
------------------------|------------------------------|--5-5-5-5-5-------------|--5-5-5-5-5-------------|
--1-1-1-1-1-------------|--1--1-1-1--1-1-1-1-1-1-1-0---|--5-5-5-5-5-------------|--1-1-1-1-1-------------|
--0-0-0-0-0-------------|--2--2-2-2--2-2-2-2-2-2-2-0---|--5-5-5-5-5-------------|--2-2-2-2-2-------------|
--0-0-0-0-0-------------|--2--2-2-2--2-2-2-2-2-2-2-0---|---------------7--------|---------------3--------|
------------------------|--0-------------0-------0-----|--0---------------------|------------------------|
--3---------------------|--------------------------3---|------------------------|--1---------------------|


                                                          ^  ^ v ^  ^ v ^ v ^ v ^  ^ ^    ^  ^ v ^  ^ v ^ v ^ v ^  ^ ^  
  S S S S Q    H           E  S S E  S S S S S S S E.     E  S S E  S S S S S S E  S S    E  S S E  S S S S S S E  S S  
--5-5-5-5-5-------------|--5--5-5-5--5-5-5-5-5-5-5-3---|--5--5-5-5--5-5-5-5-5-5-5--5-5-|--1--1-1-1--1-1-1-1-1-1-1--1-1-|
--3-3-3-3-3-------------|--5--5-5-5--5-5-5-5-5-5-5-3---|--5--5-5-5--5-5-5-5-5-5-5--5-5-|--1--1-1-1--1-1-1-1-1-1-1--1-1-|
--4-4-4-4-4-------------|--5--5-5-5--5-5-5-5-5-5-5-4---|--5--5-5-5--5-5-5-5-5-5-5--5-5-|--2--2-2-2--2-2-2-2-2-2-2--2-2-|
---------------5--------|------------------------------|--7--7-7-7--7-7-7-7-7-7-7--7-7-|--3--3-3-3--3-3-3-3-3-3-3--3-3-|
------------------------|------------------------------|--7--7-7-7--7-7-7-7-7-7-7--7-7-|--3--3-3-3--3-3-3-3-3-3-3--3-3-|
--3---------------------|--5-------------5-------5-3---|--5--5-5-5--5-5-5-5-5-5-5--5-5-|--1--1-1-1--1-1-1-1-1-1-1--1-1-|


                                                              *Da Segno

  ^  ^ v ^  ^ v ^ v ^ v ^  ^ ^    ^  ^ v ^  ^ v ^ v ^ ^ ^ ^                                           ^            
  E  S S E  S S S S S S E  S S    E  S S E  S S S S S S S E.     E    E  E  E  E  E  E  E     E  Q    H        E   
--3--3-3-3--3-3-3-3-3-3-3--3-3-|--5--5-5-5--5-5-5-5-5-5-5-3---|-----0g1--0-----------------|----------------------|
--3--3-3-3--3-3-3-3-3-3-3--3-3-|--5--5-5-5--5-5-5-5-5-5-5-3---|--3----------3--0-----1--2--|--3-------1--------L--|
--4--4-4-4--4-4-4-4-4-4-4--4-4-|--5--5-5-5--5-5-5-5-5-5-5-4---|-------------------2--------|----------2--------L--|
--5--5-5-5--5-5-5-5-5-5-5--5-5-|--7--7-7-7--7-7-7-7-7-7-7-5---|----------------------------|--0-------------------|
--5--5-5-5--5-5-5-5-5-5-5--5-5-|--7--7-7-7--7-7-7-7-7-7-7-5---|-------------------0--2--4--|----------------------|
--3--3-3-3--3-3-3-3-3-3-3--3-3-|--5--5-5-5--5-5-5-5-5-5-5-3---|-------3-----3--------------|----------------------|


  W                  
-------------------||
--L----------------||
--L----------------||
-------------------||
-------------------||
-------------------||




Duration Legend
---------------
W - whole
H - half
Q - quarter
E - 8th
S - 16th
. - note dotted

Tablature Legend
----------------
L - tied note
g - grace note
(n) - ghost note
h - hammer on
p - pull off
^ - brush up
v - brush down
Login or Register to remove this ad.

3 comments on Gangplank Galleon

Wow

5

Wow

And by that I mean this

And by that I mean this arrangement sounds really cool!

Great work, please keep them

5

Great work, please keep them coming!