Ads

Stickerbrush Symphony (Donkey Kong Country 2) Guitar Tab

Submitted: Dec 07, 2011 by JordanVS (Last updated: Dec 08, 2011)

5
Average: 5 (3 votes)
Download | Listen
Game: Donkey Kong Country 2
Composer(s): Dave Wise
Style: Arrangement, Fingerstyle
Series: Donkey Kong

This song is also called Bramble Scramble

Click here for a video example.

AutoScroll: Slow | Medium | Fast
Bramble Scramble   (Thiagometacrose Version)                 
Donkey kong country 2
Composed by David Wise
PDF Sheet by Thiagometacrose




     E  E  E.  S E  E  Q       E  E  E.  S E  E  Q     
E||-------------------------|-------------------------|
B||-----0--1---0----1-------|-----0--1---0-L--1-------|
G||--------------L-----0----|--L-----------------0----|
D||-------------------------|-------------------------|
A||--0----------------------|--0----------------------|
E||-------------------------|-------------------------|


  E  E  E.  S E  E  Q       E  E  E.  S E  E  E  S S    E  E  E.  S E  E  Q     
-------------------------|-----------------------3-3-|--L--L-------------------|
-----0--1---0-L--1-------|-----0--1---0-L--1---------|-----0--1---0-L--1-------|
--L-----------------0----|--L-----------------0------|--------------------0----|
-------------------------|---------------------------|-------------------------|
--3----------------------|--3------------------------|--0----------------------|
-------------------------|---------------------------|-------------------------|


  E  E  E.  S E  E  Q       E  E  E.  S E  E  Q       E  E  E.  S E  E  E  S S  
-------------------------|-------------------------|-----------------------3-3-|
-----0--1---0-L--1-------|-----0--1---0-L--1-------|-----0--1---0-L--1---------|
--L-----------------0----|--L-----------------0----|--L-----------------0------|
-------------------------|-------------------------|---------------------------|
--0----------------------|--3----------------------|--3------------------------|
-------------------------|-------------------------|---------------------------|


  E  E  E  E  E  E  E  E     E  E  E  E  E  E  E  E   
--L--------------------3--|--L--------3-----------3--|
-----------------0--1-----|-----0--1--------0--1-----|
--------------------------|--------------------------|
--------------------------|--------------------------|
--------------------------|--2--2--2--2--2--2--2--2--|
--1--1--1--1--1--1--1--1--|--------------------------|


  E  E  E  E  E  E  E  E     E  E  E  E  E  E  E  E   
--L--------------3--5--0--|--L-----------------------|
--------------------------|--------------------------|
--------------------------|--------------------------|
--------------------------|--------------------------|
--------------------------|--0--0--0--0--------------|
--0--0--0--0--0--0--0--0--|--------------3--3--3--3--|


  E  E  E  E  E  E  E  E     E  E  E  E  E  E  E  E   
-----------------------3--|--L--------3-----------3--|
-----------------0--1-----|-----0--1--------0--1-----|
--------------------------|--------------------------|
--------------------------|--------------------------|
--------------------------|--2--2--2--2--2--2--2--2--|
--1--1--1--1--1--1--1--1--|--------------------------|


  E  E  E  E  E  E  E  E     E  E  E  E  E  E  E  E   
--L--------8--7--------5--|--L-----------------------|
-----------------8--5-----|--------------------------|
--------------------------|--------------------------|
--------------------------|--------------------------|
--------------------------|--------------------------|
--0--0--0--0--0--0--0--0--|--5--5--5--5--3--3--3--3--|


  E  E  E  E  E  E  E  S  S    E  E  E  E  E  E  S S S S  
----------------------------|------------------------0-3-|
-----------------------3h-5-|--3-------------------3-----|
----------------------------|----------------------------|
----------------------------|----------------------------|
----------------------------|--2--2--2--2--2--2--2---2---|
--1--1--1--1--1--1--1--1----|----------------------------|


  E  E  E  E  E  S S E  E     E  E  E  S S E  E  E  E   
--L-----------3----1----0--|-----------0---------------|
---------------------------|--3----------3-1-----0--1--|
---------------------------|---------------------------|
---------------------------|---------------------------|
---------------------------|--0--0--0--0---------------|
--0--0--0--0--0--0---0--0--|---------------3--3--3--3--|


  E  E  E  E  E  E  S S E     E  E  S S E  E  E  S S E   
--5-----------L--5---------|-----5----0------------0-3--|
----------------------5----|--3------------3-----3------|
---------------------------|----------------------------|
--3--3--3--3--3--3--3---3--|----------------------------|
---------------------------|--2--2--2---2--2--2--2---2--|
---------------------------|----------------------------|


  E  E  E  E  E  S S E  E     E  E  E  E  E  E  E  E   
--L-----------3----5----7--|--7-----8--7-----3--------|
---------------------------|-----------------------5--|
---------------------------|--------------------------|
---------------------------|--------------------------|
---------------------------|--0--0--0--0--------------|
--0--0--0--0--0--0---0--0--|--------------3--3--3--3--|


  E  E  E  E  E  S S E  E     E  E  E  E  E  S S E  E   
--5------------------------|--3------------------------|
--------------1----3----5--|-----------1--0----1----5--|
---------------------------|---------------------------|
--0--0--0--0--0--0---0--0--|---------------------------|
---------------------------|---------------------------|
---------------------------|--0--0--0--0--0--0---0--0--|


  E  E  E  E  E  S S E  E     E  E  E  E  E  E  E  E   
--5------------------------|--------------------------|
-----------1-------0----1--|--5-----6--5-----3--------|
--------------2------------|-----------------------5--|
---------------------------|--------------------------|
---------------------------|--------------------------|
--1--1--1--1--1--1---1--1--|--3--3--3--3--3--3--3--3--|


  Q    E  S S E  E  E  E     E  E  E  S S E  E  E  E   
--------------------------|---------------------------|
--5----1----0-L--1--------|-----0--1----0-L--1--------|
--------------------0-----|--L------------------0-----|
--------------------------|---------------------------|
--0-------0---0--------0--|--0--------0---0--------0--|
--------------------------|---------------------------|


  E  E  E  S S E  E  E  E     E  E  E  S S E  E  E  S S  
---------------------------|------------------------3-3-|
-----0--1----0-L--1--------|-----0--1----0-L--1---------|
--L------------------0-----|--L------------------0--L-L-|
---------------------------|----------------------------|
--3--------3---3--------3--|--3--------3---3--------3---|
---------------------------|----------------------------|


  E  E  E  S S E  E  E  E     E  E  E  S S E  E  E  E   
--L--L---------------------|---------------------------|
-----0--1----0-L--1--------|-----0--1----0-L--1--------|
---------------------0-----|--L------------------0-----|
---------------------------|---------------------------|
--0--------0---0--------0--|--0--------0---0--------0--|
---------------------------|---------------------------|


  E  E  E  S S E  E  E  E     E  E  E  S S E  E  E  S S  
---------------------------|------------------------3-3-|
-----0--1----0-L--1--------|-----0--1----0-L--1---------|
--L------------------0-----|--L------------------0--L-L-|
---------------------------|----------------------------|
--3--------3---3--------3--|--3--------3---3--------3---|
---------------------------|----------------------------|


  Q    E  E  E  E  E  S S    E  E  E  S S E  E  E  S S  
--L-------------0---------|-----0------------0---------|
-------------3-----3--1-3-|--L-----3--1-3-L-----3--1-3-|
--------------------------|----------------------------|
--------------------------|----------------------------|
--------------------------|--2------------2------------|
--1-------1--L------------|----------------------------|


  Q.     E  E  E  E  E     Q.     S S Q    E  E     Q    E  E  E  E  S S E   
------------------3-----|------------------------|--5----------L--5---------|
--L---------3--5-----5--|--3------5-3------------|---------------------5----|
------------------------|-------------5----4--5--|--------------------------|
------------------------|------------------------|--3----3--3--3--3--3---3--|
------------------------|--0---------------------|--------------------------|
--0------0--L-----------|-------------3----------|--------------------------|


  E  E  S S E  E  E  S S S S    E  E  E  E  E  S S E  E   
-----5----0--------------0-3-|--L-----------3----5----7--|
--3------------3-----L-3-----|---------------------------|
-----------------------------|---------------------------|
-----------------------------|---------------------------|
--2--2--2---2--2--2--2---2---|---------------------------|
-----------------------------|--0--0--0--0--0--0---0--0--|


  E  E  E  E  E  E  E  E     E  E  E  E  E  S S E  E   
--7-----8--7-----3-----5--|--L------------------------|
--------------------5-----|--------------1----3----5--|
--------------------------|---------------------------|
--------------------------|--0--0--0--0--0--0---0--0--|
--0--0--0--0--------------|---------------------------|
--------------3--3--3--3--|---------------------------|


  E  E  E  E  E  S S E  E     E  E  E  E  E  S S E  E   
--3------------------------|--5------------------------|
-----------1--0----1----5--|-----------1-------0----1--|
---------------------------|--------------2------------|
---------------------------|---------------------------|
---------------------------|---------------------------|
--0--0--0--0--0--0---0--0--|--1--1--1--1--1--1---1--1--|


  E  E  E  E  E  E  E  E     H        E.  E.  E     Q.     E  E.  E.  E   
--------------------------|----------------------|--3--------------------|
--5-----6--5-----3-----1--|--5--------1---3---5--|---------1--0---1---5--|
--------------------------|----------------------|-----------------------|
--------------------------|--0-------------------|-----------------------|
--------------------------|----------------------|-----------------------|
--3--3--3--3--3--3--3--3--|----------------------|--0--------------------|


  Q.     E  E.  E.  E     Q    E  E  E  Q    E     W                  
--5--------------------|------------------------|-------------------||
---------1------0---1--|--5----6--5-----3-------|--5----------------||
------------2----------|---------------------5--|-------------------||
-----------------------|------------------------|-------------------||
-----------------------|------------------------|--0----------------||
--1---------1----------|--3----------3----------|-------------------||
Login or Register to remove this ad.

3 comments on Stickerbrush Symphony

This tab is awesome and so

5

This tab is awesome and so much fun to play. Thanks =)

I love it! All these great

I love it! All these great DKC tabs lately yes!

¡Super! :)

5

¡Super! :)