Ads

Stickerbrush Symphony (Donkey Kong Country 2) Guitar Tab

Submitted: Sep 08, 2009 by Hypomani

3.25
Average: 3.3 (4 votes)
Download | Listen
Game: Donkey Kong Country 2
Composer(s): Dave Wise
Style: Arrangement, Fingerstyle
Series: Donkey Kong

AutoScroll: Slow | Medium | Fast
Note: Based off the tab by ChelseaRare. 

Note 2: If you're looking for a clean guitar adaption of the song, this is
probably not what you're looking for.


     E  E  E  E  E  E  E  E     E  E  E  E  E  E  E  E     E  E  E  E  E  E  E  E   
E||--------------3-----------|--------------3--------5--|--------------3-----------|
B||-----0--1--0-----1--------|-----0--1--0-----1-----3--|-----0--1--0-----1--------|
G||--0-----------------2-----|--0-----------------2-----|--0-----------------2-----|
D||--2--------------------2--|--2-----------------------|-----------------------2--|
A||--0-----------------------|--0-----------------------|--------------------------|
E||--------------------------|--------------------------|--1-----------------------|


  E  E  E  E  E  E  E  E     E  E  E  E  E  E  E  E      E   E   E   E   E   E   E   E   
--------------3-----3--5--|--------------3-----8--7--|--10------------------------------|
-----0--1--0-----1--------|--------1--0-----5--------|------13--12--10------------------|
--0-----------------------|-----0--------------------|------------------12--10------10--|
--------------------------|--------------------------|--------------------------12------|
--------------------------|--0--------0--------------|---0-----------0-----------0------|
--1-----------------------|--------------------------|----------------------------------|


  E  E  E  E  E  E  E  E      E   E   E   E   E   E   E   E     E  E  E  E  E  E  E  E   
--------------3-----8--7--|--10--------------10--12----------|--------------3-----8--7--|
--------1--0-----5--------|------13--12--13----------12--13--|--------1--0-----5--------|
-----0--------------------|----------------------------------|-----0--------------------|
--------------------------|----------------------------------|--------------------------|
--3--------3--------------|----------------------------------|--0--------0--------------|
--------------------------|---8-----------8-----------8------|--------------------------|


   E   E   E   E   E   E   E   E     E  E  E  E  E  E  E  E      E   E   E   E   E   E   E   E   
--10------------------------------|--------------3-----8--7--|--10--------------10--12----------|
------13--12--10------------------|--------1--0-----5--------|------13--12--13----------12------|
------------------12--10------10--|-----0--------------------|--------------------------12--10--|
--------------------------12------|--------------------------|----------------------------------|
---0-----------0-----------0------|--3--------3--------------|-------------------------------8--|
----------------------------------|--------------------------|---8-----------8-----------8------|


  Q.     Q    E  E  E     Q     E  Q.     Q       Q.     Q    Q    E     Q    E  E  Q    E  E   
--1------1-------0-----|------------------5----|--3------3----1----0--|------------------------|
--------------1-----1--|--1h----3--3-----------|--3------3------------|--3----5--3-------------|
--2------2-------------|--2--------2-----------|----------------------|--0----------5----4--5--|
--3------3-------------|--3--------3-----------|----------------------|-------------5----------|
-----------------------|-----------------------|--2------2------------|------------------------|
--1------1-------------|--1--------1-----------|----------------------|--3---------------------|


  Q.     Q.     E  E     Q    E  E  Q    E  E     Q.     Q    E   Q       Q    E  Q    E  Q     
--5------5------------|--5------------------3--|--3------3----5h--7----|--7----8--7------------|
--5------5------3--5--|--5----3--5--3----------|--3------3-------------|--8-------8----8-------|
----------------------|------------------0-----|-----------------------|--9---------------9----|
--3------3------------|--3----------3----------|-----------------------|-----------------------|
----------------------|------------------------|--2------2-------------|-----------------------|
----------------------|------------------------|-----------------------|------------------0----|


  E  E  E  E  E  E  E  E     E  E  E  E  E  E  Q       E  E  E  E  E  E  E  E   
--5-----------0-----------|-------------------------|--------------0-----------|
--------1--------3--1--0--|--------0--------0-------|--------1--------3--1--0--|
-----2-----2--------------|-----0-----0--------0----|-----2-----2--------------|
--------------------------|-------------------------|--------------------------|
--0-----------------------|-------------------------|--0-----------------------|
--------------------------|--3-----------0----------|--------------------------|


  E  E  E  E  E  E  E  E     E  E  E  E  E  E  E  E     E  E  E  E  E  E  E  E   
--------------------------|--3--------3--------3-----|-----------0-----------0--|
--------0--------1-----0--|-----1--------1--------1--|--------0-----------0-----|
-----0--------2-----0-----|--------2--------2--------|-----0-----------0--------|
--------------------------|--------------------------|--------------------------|
-----------0--------------|--0-----------------0-----|--------------------------|
--3-----------------------|--------------------------|--3-----------0-----------|


  E  E  E  E  E  E  E  E     E  E  E  E  Q    Q       H.           Q       Q    Q    Q    Q     
--3--------3--------3-----|-----------0-------3----|--3------------8----|--7----3----0----5----|
-----1--------1--------1--|--------0-----1---------|--1------------5----|-------0--------------|
--------2--------2--------|-----0------------------|--2-----------------|--7---------0----5----|
--------------------------|------------------------|--------------------|----------------------|
--0-----------------0-----|------------------------|--0-----------------|----------------------|
--------------------------|--3---------------------|--------------------|----------------------|


  E  E  E  E  E  E  E  E     E  E  E  E  E  E  E  E     H        Q    Q     
--------------0-----------|--------------0-----------|---------------------|
--------1--------3--1--0--|--------0--------3--1--0--|--0--------0----1----|
-----2-----2--------------|-----0-----0--------------|---------------------|
--------------------------|--------------------------|--2--------2----2----|
--0-----------------------|--------------------------|--0--------0----0----|
--------------------------|--3-----------------------|---------------------|


  Q    Q    H           H        Q    Q       Q    Q    H           H        Q    Q     
---------------------|---------------------|---------------------|---------------------|
-------1-------------|--0--------0----1----|-------1-------------|--0--------0----1----|
------------0--------|---------------------|------------0--------|--0--------0----0----|
-------2-------------|--2--------2----2----|-------2-------------|---------------------|
-------0----0--------|--0--------0----0----|-------0----0--------|---------------------|
---------------------|---------------------|---------------------|--1--------1----1----|


                                                                    v                 
  Q    Q    H           H        Q    Q       Q    Q    H           W                 
---------------------|---------------------|---------------------|-------------------|
-------1-------------|--0--------0----1----|-------1-------------|--0----------------|
-------0----0--------|--0--------0----0----|-------0----0--------|--0----------------|
---------------------|---------------------|---------------------|--2----------------|
---------------------|---------------------|---------------------|--0----------------|
-------1----1--------|--1--------1----1----|-------1----1--------|-------------------|


  ^                  
  W                  
--3----------------||
--1----------------||
--2----------------||
-------------------||
-------------------||
-------------------||



Duration Legend
---------------
W - whole
H - half
Q - quarter
E - 8th
S - 16th
T - 32nd
X - 64th
. - note dotted
|-n-|  - n-tuplets


Tablature Legend
----------------
L - tied note
x - dead note
g - grace note
(n) - ghost note
> - accentuded note
NH - natural harmonic
AH - artificial harmonic
TH - tapped harmonic
SH - semi harmonic
PH - pitch harmonic
h - hammer on
p - pull off
b - bend
br - bendRelease
pb - preBend
pbr - preBendRelease
brb - bendReleaseBend
\n/ - tremolo bar dip
\n - tremolo bar dive
-/n - tremolo bar Release up
/n\ - tremolo bar inverted dip
/n - tremolo bar return
-\n - tremolo bar Release down
S - shift slide
s - legato slide
/ -  slide into from below or out of upwards
\ -  slide into from above or out of downwards
~ - vibrato
W - wide vibrato
tr - trill
TP - tremolo picking
T - tapping
S - slap
P - pop
< - fade in
^ - brush up
v - brush down

Login or Register to remove this ad.

2 comments on Stickerbrush Symphony

this is so awsome!!! thank

5

this is so awsome!!! thank you so much!! :'D

-

-