Ads

Sqwak's Shaft (Donkey Kong Country 2) Guitar Tab

Submitted: Jul 08, 2010 by ZizzlinA

3
Average: 3 (2 votes)
Download | Listen
Game: Donkey Kong Country 2
Composer(s): Dave Wise
Style: Transcription
Series: Donkey Kong

AutoScroll: Slow | Medium | Fast






-----------------------------------------------------------------------
			     Sqwak’s Shaft-David Wise
-----------------------------------------------------------------------



Game: Donkey Kong Country 2
Song: Sqwak’s Shaft
Composer: David Wise
Tabbed by: Aziz Razavi
Email:[email protected]

Tuning: Standard


    3x

e|13---------13-13--|5-5-5-5-5-5-5-5-5--7-7-7--8--8--8--8--8--8--8--8--
B|--12-12--12-----12|6-6-6-6-6-6-6-6-6--8-8-8--10-10-10-10-10-10-10-10-
G|------------------|7-7-7-7-7-7-7-7-7--9-9-9--10-10-10-10-10-10-10-10-
D|------------------|--------------------------------------------------
A|------------------|--------------------------------------------------
E|------------------|--------------------------------------------------


e|8---7-7-7|---------15----------------15--------|--------15--17-18-17-
B|10--8-8-8|-15-17-18--17-13--15--17-18--17-13-15|15-17-18--17---------
G|10--9-9-9|----------------14-------------------|---------------------
D|---------|-------------------------------------|---------------------
A|---------|-------------------------------------|---------------------
E|---------|-------------------------------------|---------------------

                                         4x           *bend 13 to 15

e|15-17-15--|---------15--------|------16b-15-15b-13-13b15-12-----|----
B|--------18|-15-17-18--17-13-15|-13-15----------------------13-15|----
G|----------|-------------------|---------------------------------|----
D|----------|-------------------|---------------------------------|--3-
A|----------|-------------------|---------------------------------|-5--
E|----------|-------------------|---------------------------------|----

e|-------------------|------------------------------|-------------|
B|-------------------|------------------------------|-------------|
G|-------------------|------------------------------|-------------|
D|5-2----------------|--------7-8-7-5-3-2-3-5-2-----|-7-5-7--7-5-7|
A|---3-5-7-8-10-7-3-5|7-8-10-7-----------------3-/-5|-5-3-5--5-3-5|
E|----5--------------|------------------------------|-------------|

************************************
| /   slide up
| \   slide down
| h   hammer-on
| p   pull-off
| ~   vibrato
| +   harmonic
| x   Mute note
| b   Bend
| pb  Pre-bend
| br  Bend release
| pbr Pre-bend release
| brb Bend release bend

************************************
Login or Register to remove this ad.

2 comments on Sqwak's Shaft

Love this one, thanks for

Love this one, thanks for showing it some love!

thanks

thanks