Ads

Snakey Chantey (Donkey Kong Country 2) Guitar Tab

Submitted: Jun 15, 2009 by RexLeRouge (Last updated: Nov 13, 2009)

4.2
Average: 4.2 (5 votes)
Download | Listen
Game: Donkey Kong Country 2
Composer(s): Dave Wise
Style: Transcription
Series: Donkey Kong

This song is also called Rattle Battle

Click here for a video example.

AutoScroll: Slow | Medium | Fast
Donkey Kong Country 2 - Snakey Chantey "Rattle Battle"

Composed by: Dave Wise
Tabbed by: RexLeRouge   


This tab is part of another which has a bass tab which can be found Here                              


Mélodie
     E  E  E  E  E  E  E  E     E  E  Q    Q    Q     
E||--------------------------|-------------5---------|
B||--6--5-----------5--6--5--|-----5--6---------6----|
G||--------7--5--7-----------|--7--------------------|
D||--------------------------|-----------------------|
A||--------------------------|-----------------------|
E||--------------------------|-----------------------|


  E  E  E  E  E  E  E  E     E  E  H.              E  E  Q    E  E  Q     
--------------------------|---------------------|--8--6--5----5-----5----|
--6--5-----------5--6--5--|-----5--6------------|----------------8-------|
--------7--5--7-----------|--7------------------|------------------------|
--------------------------|---------------------|------------------------|
--------------------------|---------------------|------------------------|
--------------------------|---------------------|------------------------|


  E  E  E  E  E  E  Q       Q    Q    E  E  Q       E  E  E  E  E  E  Q     
--5-----5-----5--6--8----|--5--------------------|--------------------5----|
-----8-----8-------------|-------6----6--5--6----|--6--5--6--5--6--8-------|
-------------------------|-----------------------|-------------------------|
-------------------------|-----------------------|-------------------------|
-------------------------|-----------------------|-------------------------|
-------------------------|-----------------------|-------------------------|


  E  E  Q    E  E  Q       E  E  E  E  E  E  E  E     E  E  E  E  E  E  E  E   
--------5----5-----5----|--5-----5-----5--6--8--6--|--5-----------------------|
--6--8----------8-------|-----8-----8--------------|-----8--6--5-----5--6--5--|
------------------------|--------------------------|--------------7-----------|
------------------------|--------------------------|--------------------------|
------------------------|--------------------------|--------------------------|
------------------------|--------------------------|--------------------------|


  E  E  Q    Q    Q       E  E  E  E  E  E  E  E     E  E  H.            
-------------5---------|--------------------------|---------------------|
-----5--6---------6----|--6--5-----------5--6--5--|-----5--6------------|
--7--------------------|--------7--5--7-----------|--7------------------|
-----------------------|--------------------------|---------------------|
-----------------------|--------------------------|---------------------|
-----------------------|--------------------------|---------------------|


  W                   W                     Q    E  E  Q    E  E   
-------------------|-------------------||---5----5-----5----5-----|
-------------------|-------------------||-----------8----------8--|
-------------------|-------------------||*------------------------|
-------------------|-------------------||*------------------------|
-------------------|-------------------||-------------------------|
-------------------|-------------------||-------------------------|


  E  E  E  Q    E  E  E     Q    E  E  Q    E  E     E  E  E  Q    E  Q     
--5--5--6--8----6--5-----|------------------------|-----------5------------|
----------------------8--|--6----6--5--6----6--5--|--5--6--8-------8--6----|
-------------------------|------------------------|------------------------|
-------------------------|------------------------|------------------------|
-------------------------|------------------------|------------------------|
-------------------------|------------------------|------------------------|


  Q    E  E  Q    E  E     E  E  E  Q    E  E  E     Q    Q    E  Q    E   
--5----5-----5----5-----|--5--5--6--8----6--5-----|-----------------------|
----------8----------8--|----------------------8--|--6----6----6--6----6--|
------------------------|-------------------------|-----------------------|
------------------------|-------------------------|-----------------------|
------------------------|-------------------------|-----------------------|
------------------------|-------------------------|-----------------------|


  Q    H.               Q    E  E  Q    E  E     E  E  E  Q    E  Q     
-------5-------------|--5----5-----5----5-----|--5-----5--5------------|
-------8b------------|----------8----------8--|-----8----------8--6----|
---------------------|------------------------|------------------------|
---------------------|------------------------|------------------------|
---------------------|------------------------|------------------------|
---------------------|------------------------|------------------------|


  Q    E  E  Q    E  E     E  E  E  Q    E  Q       Q    E  E  Q    E  E   
------------------------|------------------------|-------------5----5-----|
--6----6--5--6----6--5--|--6--5--6--6----8--6----|--6----6--8----------8--|
------------------------|------------------------|------------------------|
------------------------|------------------------|------------------------|
------------------------|------------------------|------------------------|
------------------------|------------------------|------------------------|


  E  E  E  Q    E  Q       E  E  E  E  E  Q    E     H.           E  E   
--5-----5--5------------|--------------5----------|---------------------|
-----8----------8--6----|-----------6-----8----6--|--L---------------6--|
------------------------|--5--6--7----------------|---------------------|
------------------------|-------------------------|---------------------|
------------------------|-------------------------|---------------------|
------------------------|-------------------------|---------------------|


  E  E  E  E  E  Q    E     W                   Q    Q    Q    Q     
--------------5----------|-------------------|----------------------|
-----------6-----8----6--|--L----------------|-------6---------6----|
--5--6--7----------------|-------------------|--7---------7---------|
-------------------------|-------------------|----------------------|
-------------------------|-------------------|----------------------|
-------------------------|-------------------|----------------------|


  Q    E  Q    E  E  E     W                   W                 
----------5-------------|-------------------|-------------------|
-------6-------8--6-----|-------------------|-------------------|
--7------------------5--|-------------------|-------------------|
------------------------|-------------------|-------------------|
------------------------|-------------------|-------------------|
------------------------|-------------------|-------------------|


  Q    Q    Q    Q       Q    E  Q    E  E  E     H.           E  E   
----------------------|----------5-------------|------------------5--|
-------6---------6----|-------6-------8--6--8--|---------------------|
--7---------7---------|--7---------------------|---------------------|
----------------------|------------------------|---------------------|
----------------------|------------------------|---------------------|
----------------------|------------------------|---------------------|


  Q    Q    E  Q.        Q    Q    E  Q    E     H.           E  E   
--L----5--------------|-----------------------|---------------------|
------------8--6------|-------6-------6-------|------------------8--|
----------------------|--7---------7-------7--|---------------------|
----------------------|-----------------------|---------------------|
----------------------|-----------------------|---------------------|
----------------------|-----------------------|---------------------|


  Q    Q    E  Q    E     H.           E  E     Q    E  E  Q    E  E   
--5----5----5----------|---------------------|-------5----------------|
---------------8----6--|------------------6--|--8-------8----------6--|
-----------------------|---------------7-----|------------------7-----|
-----------------------|---------------------|------------------------|
-----------------------|---------------------|------------------------|
-----------------------|---------------------|------------------------|


  Q    E  E  Q    E  E     Q    Q    Q    Q       Q     Q     E  Q.        
-------5----------------|----------------------|-------------------------||
--8-------8----------6--|--8----8----8----8----|--8b----8b----8--6-------||
------------------7-----|----------------------|------------------------*||
------------------------|----------------------|------------------------*||
------------------------|----------------------|-------------------------||
------------------------|----------------------|-------------------------||




Duration Legend
---------------
W - whole
H - half
Q - quarter
E - 8th
S - 16th
T - 32nd
X - 64th
. - note dotted
|-n-|  - n-tuplets


Tablature Legend
----------------
L - tied note
x - dead note
g - grace note
(n) - ghost note
> - accentuded note
NH - natural harmonic
AH - artificial harmonic
TH - tapped harmonic
SH - semi harmonic
PH - pitch harmonic
h - hammer on
p - pull off
b - bend
br - bendRelease
pb - preBend
pbr - preBendRelease
brb - bendReleaseBend
\n/ - tremolo bar dip
\n - tremolo bar dive
-/n - tremolo bar Release up
/n\ - tremolo bar inverted dip
/n - tremolo bar return
-\n - tremolo bar Release down
S - shift slide
s - legato slide
/ -  slide into from below or out of upwards
\ -  slide into from above or out of downwards
~ - vibrato
W - wide vibrato
tr - trill
TP - tremolo picking
T - tapping
S - slap
P - pop
< - fade in
^ - brush up
v - brush down
Login or Register to remove this ad.

3 comments on Snakey Chantey

This is wonderful tab. And it

5

This is wonderful tab. And it sounds spot on.

ffff

Super :)!!

ffff

Super :)!!