Ads

Krook's March (Donkey Kong Country 2) Guitar Tab

Submitted: Nov 30, 2011 by JordanVS (Last updated: Nov 30, 2011)

5
Average: 5 (2 votes)
Download | Listen
Game: Donkey Kong Country 2
Composer(s): Dave Wise
Style: Alternate picking, Arrangement
Series: Donkey Kong

This song is also called Castle Theme

AutoScroll: Slow | Medium | Fast
Krook's March
Donkey Kong Country 2
Castle Crush
David Wise



Obs:Since this song has too many instruments i took the main melodies and created the "fake lead".
Check Gp file for the others instruments.=D 


Fake Lead Guitar



                              H.           Q       Q    H.            
E||-------||--------|--------------------|--------------------|
B||-------||--------|--------------------|--------------------|
G||-------||*-------|--------------------|--------------------|
D||-------||*-------|--8------------7----|--------------------|
A||-------||--------|--------------------|--8----7------------|
E||-------||--------|--------------------|--------------------|


  H.           Q       E  E  Q    H           Q    E  E  Q    Q     
--------------------|----------------------|-----------------------|
--------------------|----------------------|-----------------------|
--------------------|----------------------|-----------------------|
--------------------|----------------------|-------5--7--8----7----|
--5------------7----|--8--7--8-------------|-----------------------|
--------------------|----------------------|-----------------------|


  H        H           H.           Q       E  E  E  H        E   
--------------------|--------------------|-----------------------|
--------------------|--------------------|-----------------------|
--------------------|--------------------|-----------------------|
--6-----------------|--5------------7----|--8--7--8--------------|
--------------------|--------------------|-----------------------|
--------------------|--------------------|-----------------------|


  Q    E  E  Q    Q       H        H           H.           Q     
-----------------------|--------------------|--------------------|
-----------------------|--------------------|--------------------|
-------5--7--8----7----|--6-----------------|--------------------|
-----------------------|--------------------|--------------------|
-----------------------|--------------------|--5------------7----|
-----------------------|--------------------|--------------------|


  E  E  Q    H           Q    E  E  Q    Q       H        H         
----------------------|-----------------------|--------------------|
----------------------|-----------------------|--------------------|
----------------------|-----------------------|--------------------|
----------------------|-------5--7--8----7----|--6-----------------|
--8--7--8-------------|-----------------------|--------------------|
----------------------|-----------------------|--------------------|


  H.           Q       E  E  E  H        E     Q    E  E  Q    Q     
--------------------|-----------------------|-----------------------|
--------------------|-----------------------|-----------------------|
--------------------|-----------------------|-------5--7--8----7----|
--5------------7----|--8--7--8--------------|-----------------------|
--------------------|-----------------------|-----------------------|
--------------------|-----------------------|-----------------------|


  H        H           H.           Q       E  E  Q    H         
--------------------|--------------------|----------------------|
--------------------|--------------------|----------------------|
--6-----------------|--------------------|----------------------|
--------------------|--------------------|----------------------|
--------------------|--5------------7----|--8--7--8-------------|
--------------------|--------------------|----------------------|


  Q    E  E  Q    Q       H        H           H.           Q     
-----------------------|--------------------|--------------------|
-----------------------|--------------------|--------------------|
-----------------------|--------------------|--------------------|
-------5--7--8----7----|--6-----------------|--5------------7----|
-----------------------|--------------------|--------------------|
-----------------------|--------------------|--------------------|


  E  E  E  H        E     Q    E  E  Q    Q       H        H         
-----------------------|-----------------------|--------------------|
-----------------------|-----------------------|--------------------|
-----------------------|-------5--7--8----7----|--6-----------------|
--8--7--8--------------|-----------------------|--------------------|
-----------------------|-----------------------|--------------------|
-----------------------|-----------------------|--------------------|


   H        Q     Q        H        Q     E   E      H         Q     Q     
--13-------------12----|--13-------------15--17--|--18--------17----15----|
-----------------------|-------------------------|------------------------|
-----------------------|-------------------------|------------------------|
-----------------------|-------------------------|------------------------|
-----------------------|-------------------------|------------------------|
-----------------------|-------------------------|------------------------|


   Q     Q     Q.     E     W                   W                 
--17---------------------|--6----------------|--5----------------|
--------18---------------|--8----------------|--6----------------|
--------------19------L--|--7----------------|--L----------------|
-------------------------|-------------------|-------------------|
-------------------------|-------------------|-------------------|
-------------------------|-------------------|-------------------|


  W                    W                   E  E  E  E  E  Q.      
--4\----------------|--L----------------|--6-----------6---------|
--5\----------------|--L----------------|--------8---------------|
--L-----------------|--L----------------|------------------------|
--------------------|-------------------|------------------------|
--------------------|-------------------|------------------------|
--------------------|-------------------|------------------------|


  E  E  E  E  E  Q.        E  E  E  E  E  Q.        E  E  E  E  E  E  E  E   
--8-----------8---------|--6-----------6---------|--6-----5-----------------|
--------8---------------|--------8---------------|--------------6-----------|
------------------------|------------------------|--------------------7-----|
------------------------|------------------------|--------------------------|
------------------------|------------------------|--------------------------|
------------------------|------------------------|--------------------------|


  E  E  E  E  E  Q.        E  E  E  E  E  Q.        E  E  E  E  E  Q.      
--6-----------6---------|--8-----------8---------|--6-----------6---------|
--------8---------------|--------8---------------|--------8---------------|
------------------------|------------------------|------------------------|
------------------------|------------------------|------------------------|
------------------------|------------------------|------------------------|
------------------------|------------------------|------------------------|


  E  E  E  E  E  E  E  E     E  E  E  E  E  Q.        E  E  E  E  E  Q.      
--6-----5-----------------|--6-----------6---------|--8-----------8---------|
--------------6-----------|--------8---------------|--------8---------------|
--------------------7-----|------------------------|------------------------|
--------------------------|------------------------|------------------------|
--------------------------|------------------------|------------------------|
--------------------------|------------------------|------------------------|


  E  E  E  E  E  Q.        E  E  E  E  E  E  E  E     E  E  E  E  E  Q.      
--6-----------6---------|--6-----5-----------------|--6-----------6---------|
--------8---------------|--------------6-----------|--------8---------------|
------------------------|--------------------7-----|------------------------|
------------------------|--------------------------|------------------------|
------------------------|--------------------------|------------------------|
------------------------|--------------------------|------------------------|


  E  E  E  E  E  Q.        E  E  E  E  E  Q.        E  E  E  E  E  E  E  E   
--8-----------8---------|--6-----------6---------|--6-----5-----------------|
--------8---------------|--------8---------------|--------------6-----------|
------------------------|------------------------|--------------------7-----|
------------------------|------------------------|--------------------------|
------------------------|------------------------|--------------------------|
------------------------|------------------------|--------------------------|


  Q     H         Q       H        E  E   E   E      H.           Q     
-----------------------|-------------------------|--10------------8----|
-------11--------10----|--8--------L-----10--11--|---------------------|
-----------------------|-------------------------|---------------------|
-----------------------|-------------------------|---------------------|
-----------------------|-------------------------|---------------------|
-----------------------|-------------------------|---------------------|


   W                   Q     H         Q       H        E  E   E  E   
--------------------|-----------------------|------------------------|
--10----------------|-------11--------10----|--8--------L-----10--8--|
--------------------|-----------------------|------------------------|
--------------------|-----------------------|------------------------|
--------------------|-----------------------|------------------------|
--------------------|-----------------------|------------------------|


   H.            E   E      W                   Q     H        Q     
------------------------|--------------------|-------10--------8----|
--11------------13--11--|--10----------------|----------------------|
------------------------|--------------------|----------------------|
------------------------|--------------------|----------------------|
------------------------|--------------------|----------------------|
------------------------|--------------------|----------------------|


   H        E  E  E   E      H.            Q       W                 
------------------8--10--|--11------------10----|--8----------------|
--11--------L------------|----------------------|-------------------|
-------------------------|----------------------|-------------------|
-------------------------|----------------------|-------------------|
-------------------------|----------------------|-------------------|
-------------------------|----------------------|-------------------|


  Q     H        Q        H        E  E   E   E      H.            E   E   
-------10--------8----|--------------------------|--10------------11--10--|
----------------------|--11--------L-----13--11--|------------------------|
----------------------|--------------------------|------------------------|
----------------------|--------------------------|------------------------|
----------------------|--------------------------|------------------------|
----------------------|--------------------------|------------------------|


   W                   W                   H        H         
--------------------|-------------------|--------------------|
--10----------------|-------------------|--------------------|
--------------------|-------------------|--------------------|
--------------------|--5----------------|--L--------7--------|
--------------------|-------------------|--------------------|
--------------------|-------------------|--------------------|


  W                   W                   W                 
-------------------|-------------------|-------------------|
-------------------|-------------------|-------------------|
-------------------|-------------------|-------------------|
--8----------------|--L----------------|-------------------|
-------------------|-------------------|--6----------------|
-------------------|-------------------|-------------------|


  H        H           W                   W                 
--------------------|-------------------|-------------------|
--------------------|-------------------|-------------------|
--------------------|-------------------|-------------------|
-----------5--------|--3----------------|--L----------------|
--------------------|-------------------|-------------------|
--------------------|-------------------|-------------------|


  W                   H        H           W                 
-------------------|--------------------|-------------------|
-------------------|--------------------|-------------------|
-------------------|--------------------|-------------------|
--5----------------|--L--------7--------|--8----------------|
-------------------|--------------------|-------------------|
-------------------|--------------------|-------------------|


  W                   W                   H        H         
-------------------|-------------------|--------------------|
-------------------|-------------------|--------------------|
-------------------|-------------------|--------------------|
--L----------------|-------------------|-----------5--------|
-------------------|--6----------------|--------------------|
-------------------|-------------------|--------------------|


  W                   W                   H        Q.      E   
-------------------|-------------------|----------------------|
-------------------|-------------------|-----------8------10--|
-------------------|-------------------|----------------------|
--3----------------|--L----------------|----------------------|
-------------------|-------------------|----------------------|
-------------------|-------------------|----------------------|


   Q     H.              H        Q.      E      W                 
--------10------------|----------------------|--------------------|
--11------------------|-----------8------10--|--11----------------|
----------------------|----------------------|--------------------|
----------------------|----------------------|--------------------|
----------------------|----------------------|--------------------|
----------------------|----------------------|--------------------|


  H         Q.      E      Q     Q    Q    Q       W                 
-----------------------|--------10----8----6----|--8----------------|
-------------------10--|--11--------------------|-------------------|
-----------12----------|------------------------|-------------------|
-----------------------|------------------------|-------------------|
-----------------------|------------------------|-------------------|
-----------------------|------------------------|-------------------|


                      H        Q.      E      Q     H        Q     
-------------------|----------------------|--------10-------------|
-------------------|-----------8------10--|--11-------------------|
-------------------|----------------------|-----------------------|
-------------------|----------------------|-----------------------|
-------------------|----------------------|-----------------------|
-------------------|----------------------|-----------------------|


   Q.     E   Q.     E      H        Q    E   E      Q.     E   Q.     E   
--11---------10------8--|--10-------------8--10--|--11---------10------8--|
------------------------|------------------------|------------------------|
------------------------|------------------------|------------------------|
------------------------|------------------------|------------------------|
------------------------|------------------------|------------------------|
------------------------|------------------------|------------------------|


   Q.     E   Q.     E      H        Q    E   E     H        H         3x
--10--------------------|-----------------8--10--|--8------------------||
-------------11---------|--11--------------------|---------------------||
------------------------|------------------------|--------------------*||
------------------------|------------------------|--------------------*||
------------------------|------------------------|---------------------||
------------------------|------------------------|---------------------||
Login or Register to remove this ad.