Ads

Krook's March (Donkey Kong Country 2) Guitar Tab

Submitted: Jul 07, 2010 by ZizzlinA

3
Average: 3 (2 votes)
Download | Listen
Game: Donkey Kong Country 2
Composer(s): Dave Wise
Style: Transcription
Series: Donkey Kong

AutoScroll: Slow | Medium | Fast
-----------------------------------------------------------------------
			     Krook’s March – David Wise

Game: Donkey Kong Country 2
Song: Krook’s March
Composer: David Wise
Tabbed by: Aziz Razavi
Email:[email protected]

Tuning: Drop D

  <--------------------Bassline---------------> 

e|-------------------------|-----------------|-------------------------
B|-------------------------|-----------------|-----------10-11-10--10--
G|-------------------------|-----------------|-10-9-10-12--------12--10
D|-------------------------|-----------0-1-0-|-------------------------
A|-1-0---------------0-1-0-|--0-1-0-1-3-----4|-------------------------
D|----3-2-0-2-3-2-3-5-----6|-5---------------|-------------------------

e|---|---------|--------------------------------|--------------|-------
B|---|-11-10-9-|-11--11-13--13-11--11--11-10----|--------------|-------
G|---|-12-10-10|---12-----12-----12---------11--|---------7----|-------
D|-12|---------|------------------------------12|-8-7--7-8-10-7|-8-7--7
A|---|---------|--------------------------------|----10--------|----10-
D|---|---------|--------------------------------|--------------|-------

e|-----------|--------|-------------------------|---------------|------
B|-----------|--------|-------------------------|---------------|------
G|-----------|----7-10|------7----------7-------|------7-8-7-5-7|-5-7-8
D|---8-10-8-7|-7-8----|---7-8---7-8--7-8-10-8-10|---7-8---------|------
A|-10--------|--------|-10----10---10-----------|-10------------|------
D|-----------|--------|-------------------------|---------------|------

e|---------------|
B|---------------|
G|-7-5-7------7--|
D|------8-8-10-10|
A|---------------|
D|---------------|

************************************

| /   slide up
| \   slide down
| h   hammer-on
| p   pull-off
| ~   vibrato
| +   harmonic
| x   Mute note
| b   Bend
| pb  Pre-bend
| br  Bend release
| pbr Pre-bend release
| brb Bend release bend



Login or Register to remove this ad.