Ads

K. Rool Returns (Donkey Kong Country 2) Guitar Tab

Submitted: Nov 29, 2011 by N0Stars

5
Average: 5 (3 votes)
Download | Listen
Game: Donkey Kong Country 2
Composer(s): Dave Wise
Style: Arrangement, Fingerstyle, Percussion
Series: Donkey Kong

This song is also called Title Theme

AutoScroll: Slow | Medium | Fast
Donkey Kong Country 2 (Title Theme) - K. Rool Returns!

Composed by David Wise

Arranged for guitar by NorthStar

Gtr I (D A D G B E) - 'Untitled'

   4/4
    Gtr I
    |-3-| |-3-|  |-3-| |-3-|   |-3-| |-3-|  |-3-| |-3-|
    E E E E E E  E E E E E E   E E E E E E  E E E E E E
||--5---6-6---5--5---5-5---5-|-5---6-6---5--5---5-5---5----|
||o---6-----6------6-----6---|---6-----6------6-----6------|
||---------------------------|-----------------------------|
||---------------------------|-----------------------------|
||o--------------------------|-----------------------------|
||---------------0-----------|-----------------------------|


  |-3-| |-3-| |-3-| |-3-|   |-3-| |-3-| |-3-| |-3-|
  E E E E E E E E E E E E   E E E E E E E E E E E E
|-5---6-6---5-5---5-5---5-|-6---6-6---6-5---5-5---5----|
|---6-----6-----6-----6---|---8-----8-----6-----6------|
|-------------------------|-0--------------------------|
|-0-----------------0-----|----------------------------|
|-----------7-8-----------|-------8---7-8-----5--------|
|-------------------------|----------------------------|


  |-3-| |-3-| |-3-| |-3-|   |-3-| |-3-| |-3-| |-3-|
  E E E E E E E E E E E E   E E E E E E E E E E E E
|-6---6-6---6-5---5-5---5-|-4---4-4---4-5---5-5---5----|
|---8-----8-----6-----6---|---5-----5-----5-----5------|
|-0-----------------------|----------------------------|
|-------7---8-7-----------|-------------7--------------|
|-------------------8-----|-7-----7--------------------|
|-------------------------|----------------------------|

(Optional) Hit guitar with the palm of the hand on second 
and fourth beats for measure 7 - 9

  |-3-|        |-3-|       |-3-| |3-| |-3-|
  E E E +Q   E E E E Q     E E E Q  E E E E Q
|------------0-1---------|-3--------0-1----------|
|-3---3-(3)----------3---|-----3-6----------3----|
|---2--------2-2-----2---|---3---3--3-2-----2----|
|-3--------------3-0-0---|-5-----5------3-0-3----|
|------------------------|-----------------------|
|-0----------2-3-----0---|-5-----3--2-3-----0----|


  |-3-| |3-| |-3-|       |-3-| |-3-| |-3-| |-3-|
  E E E Q  E E E E Q     E E E E E E E E E E E E
|-3-----5--6-5-----1---|-0-----1---3-5---------5----|
|-----3-3----------3---|---------------------5------|
|---3--------2---------|-1---1-1---1-2---2-2---2----|
|-5--------8---3-0-----|---2-----2-----2-----2------|
|-------0----0---------|-------------0-----0--------|
|-5--------8-------3---|-2-----3--------------------|


      |3-|              |3-|    |3-|
  Q   Q  E Q  Q      Q  Q  E Q  Q  E
|-6---5--3-5-------|-3------------------|
|-3--------3--6----|-4--6--4-3----------|
|----------2-------|-3----------3--3----|
|-5--------0-------|------------3-------|
|------------------|-6-------1----------|
|------------------|--------------------|


                  1.
     |3| |3|      |-3-| |-3-| |-3-|
  Q  Q E Q E Q    E E E E E E E E E Q   +H.         Q
|---------------|-----------0-0-1-3-5-|-(5)---------5-----||
|-4--3---3------|-----0-1-3---------2-|-(2)--------------o||
|-5----5---3-0--|-1-2---------------2-|-(2)---------------||
|-5------5------|-------------2-------|-------------------||
|-3-------------|-------------------0-|-(0)--------------o||
|--------5------|-2-------------------|-------------------||


  2.
  |-3-| |-3-| |--3--| |-3-|
  E E E E E E E E S S S S S
|-------------0-1-0------------|
|-----0-1-3---------3-1-0------|
|-1-2---------------------2----|
|-------------2----------------|
|------------------------------|
|-2----------------------------|

(Optional) Hit guitar with the palm of the hand on the second 
and fourth beats for measures 17 - 20

     |3|            |3|            |3|
  Q  Q E Q  Q    Q  Q E Q  Q    Q  Q E Q  Q
|----5------5--|----5------5--|----5------5----|
|----6------6--|----6------6--|----6------6----|
|----7------7--|----7------7--|----7------7----|
|-0------3-----|-0------------|-0------3-------|
|------7-------|--------------|------7---------|
|-0------3-----|-0----8-7-----|-0------3-------|


     |3-|
  Q  Q  E  Q  Q   H   H     H   Q  Q   +W
|----6--------5-|-6---5---|-3---6--5-|-(5)----|
|----8--------6-|-8---6---|-2---8--5-|-(5)----|
|-------------7-|-7---7---|-----7--6-|-(6)----|
|-5-------------|---------|-2---5--7-|-(7)----|
|----8--7--8----|-----0---|----------|--------|
|-5-----------0-|-0-------|--------7-|-(7)----|


Duration Legend
---------------
W - whole; H - half; Q - quarter; E - 8th; S - 16th; T - 32nd; X - 64th; a - acciaccatura
+ - note tied to previous; . - note dotted; .. - note double dotted
Uncapitalized letters represent notes that are staccato (1/2 duration)
Irregular groupings are notated above the duration line
Duration letters will always appear directly above the note/fret number it represents the
duration for.  Duration letters with no fret number below them represent rests.  Multi-
bar rests are notated in the form Wxn, where n is the number of bars to rest for.  Low
melody durations appear below the staff

Tablature Legend
----------------
 h   - hammer-on
 p   - pull-off
 b   - bend
 pb  - pre-bend
 r   - bend release (if no number after the r, then release immediately)
 /\  - slide into or out of (from/to "nowhere")
 s   - legato slide
 S   - shift slide
  - natural harmonic
[n]  - artificial harmonic
n(n) - tapped harmonic
 ~   - vibrato
 tr  - trill
 T   - tap
 TP  - trem. picking
 PM  - palm muting
\n/  - tremolo bar dip; n = amount to dip
 \n  - tremolo bar down
 n/  - tremolo bar up
/n\  - tremolo bar inverted dip
 =   - hold bend; also acts as connecting device for hammers/pulls
 <>  - volume swell (louder/softer)
 x   - on rhythm slash represents muted slash
 o   - on rhythm slash represents single note slash

Misc Legend
-----------
 |  - bar
||  - double bar
||o - repeat start
o|| - repeat end
*|  - double bar (ending)
 :  - bar (freetime)
 $  - Segno
 &  - Coda
Tempo markers -  = BPM(8/16=s8/s16), where s8 = swing 8ths, s16 = swing 16ths
Login or Register to remove this ad.