Ads

Jib Jig (Donkey Kong Country 2) Guitar Tab

Submitted: Jun 03, 2011 by Shippo55555

0
Download | Listen
Game: Donkey Kong Country 2
Composer(s): Dave Wise
Style: Arrangement, Fingerstyle
Series: Donkey Kong

This song is also called Mainbrace Mayhem

AutoScroll: Slow | Medium | Fast
6/8
                 S  S    Q    E   Q    E     E   E   E   Q    E     E   E   E   Q    E
E||--------------------|-------------------|----------------------|----------------------|
B||--------------------|-2--------2--------|-3---2---0---2--------|-3---2---0---2--------|
G||--------------2--4--|------2--------2---|------------------2---|------------------2---|
D||--------------------|-------------------|----------------------|----------------------|
A||--------------------|-------------------|----------------------|----------------------|
E||--------------------|-------------------|----------------------|----------------------|

   E   E   E   Q   S S   Q    E   Q    E     E   E   E   Q    E     E   E   E   Q    E
E|---------------------|-------------------|----------------------|-2---0-------0--------|
B|---------2---0-------|-2--------2--------|-3---2---0---2--------|---------3--------2---|
G|-2---4-----------2-4-|------2--------2---|------------------2---|----------------------|
D|---------------------|-------------------|----------------------|----------------------|
A|---------------------|-------------------|----------------------|----------------------|
E|---------------------|-------------------|----------------------|----------------------|

   E   E   E   Q.      Q    E   E   E   E     Q    E   Q    E     Q    E   E   E   E
E|-2---4---5---4-----|------5-------4---2---|-4----0---4----0---|------2-------0-------|
B|-------------------|-2--------------------|-------------------|----------3-------3---|
G|-------------------|----------------------|----------6--------|-2--------------------|
D|-------------------|----------4-----------|-6-----------------|----------------------|
A|-------------------|-4--------------------|-------------------|----------------------|
E|-------------------|----------------------|-------------------|----------------------|

   Q    E   Q.      Q    E   E   E   E     Q    E   Q    E     Q    E   E   E   E
E|----------------|----------------------|-------------------|----------------------|
B|-2----3---2-----|-3----3-------2---0---|-2--------2--------|-2----3---2---0-------|
G|----------2-----|----------4-----------|------2--------2---|------------------2---|
D|-2--------------|-4--------------------|----------4--------|----------------------|
A|----------------|----------------------|-4-----------------|----------4-----------|
E|----------------|----------------------|-------------------|-2--------------------|

   Q    E   Q    S  S    Q    E   Q    E     E   E   E   Q    E     E   E   E   Q    E 
E|------0---0----------|-------------------|----------------------|----------------------|
B|-0-------------------|-2--------2--------|-3---2---0---2--------|-3---2---0---2--------|
G|---------------2--4--|------2--------2---|------------------2---|------------------2---|
D|----------2----------|-2--------2--------|-4-----------2--------|-4-----------2--------|
A|-2-------------------|-------------------|----------------------|----------------------|
E|---------------------|-------------------|----------------------|----------------------|

   E   E   E   Q   S S   Q    E   Q    E     E   E   E   Q    E     E   E   E   Q    E
E|---------------------|-------------------|----------------------|-2---0-------0--------|
B|---------2---0-------|-2--------2--------|-3---2---0---2--------|---------3--------2---|
G|-2---4-----------2-4-|------2--------2---|------------------2---|----------------------|
D|---------------------|-2--------2--------|-4-----------2--------|-4-----------2--------|
A|-0-----------2-------|-------------------|----------------------|----------------------|
E|---------------------|-------------------|----------------------|----------------------|

   E   E   E   Q    S  S    H.                Q.    E   E   E     Q    E   E   Q
E|-2---4---5---4----2--4--|-5------|--------|-------7---9---10--|-9-----------------|
B|------------------------|--------|--------|-7-----7-----------|------10------7----|
G|-------------1----------|--------|--------|-6-----6-----------|-6--------6--------|
D|-4----------------------|-2------|--------|-------------------|-7--------7--------|
A|------------------------|--------|--------|-------------------|-------------------|
E|------------------------|--------|--------|-------------------|-------------------|

   Q    E   E   E   E     Q    E   Q.      Q.    E   E   E     Q    E   E   Q
E|------7---7---9---10--|-9----10--9-----|-------7---9---10--|-9-----------------|
B|-7--------7-----------|----------------|-7-----7-----------|------10------7----|
G|-6--------6-----------|-6--------6-----|-6-----6-----------|-6--------6--------|
D|----------------------|-7--------7-----|-------------------|-7--------7--------|
A|----------------------|----------------|-------------------|-------------------|
E|----------------------|----------------|-------------------|-------------------|

   Q    E   E   Q    Q,    Q    S  S  Q.    E   E   E   Q.    Q    S  S  Q    E   Q    E
E|-----------------|----------------|-----------7---9-|-7-----7--------|-----------------|
B|-10---10------10-|-10---------8--7|-10--------------|----------------|-2--------2------|
G|-7--------7------|-7-----7--------|-7-----7---------|-9-----9----2--4|------2--------2-|
D|-9--------9------|-9-----9--------|-7-----7---------|-7-----7--------|-----------------|
A|-----------------|----------------|-----------------|----------------|-----------------|
E|-----------------|----------------|-----------------|----------------|-----------------|

   E   E   E   Q    E    E   E   E   Q    E    E   E   E   Q    S  S   Q    E   Q    E
E|---------------------|---------------------|-----------------------|-------------------|
B|-3---2---0---2-------|-3---2---0---2-------|---------2---0---------|-2--------2--------|
G|------------------2--|------------------2--|-2---4------------2--4-|------2--------2---|
D|---------------------|---------------------|-----------------------|-------------------|
A|---------------------|---------------------|-----------------------|-------------------|
E|----------------------|----------------------|-----------------------|-------------------|
  
   E   E   E   Q    E    E   E   E   Q    E     E   E   E   Q.      Q    E   E   E   E
E|---------------------|-2---0-------0--------|-2---4---5---4-----|------5-------4---2---|
B|-3---2---0---2-------|---------3--------2---|-------------------|-2--------------------|
G|------------------2--|----------------------|-------------------|----------------------|
D|---------------------|----------------------|-------------------|----------4-----------|
A|---------------------|----------------------|-------------------|-4--------------------|
E|---------------------|----------------------|-------------------|----------------------|

   Q    E   Q    E     Q    E   E   E   E     Q    E   Q.      Q    E   E   E   E
E|-4----0---4----0---|------2-------0-------|----------------|----------------------|
B|-------------------|----------3-------3---|-2----3---2-----|-3----3-------2---0---|
G|----------6--------|-2--------------------|----------2-----|----------4-----------|
D|-6-----------------|----------------------|-2--------------|-4--------------------|
A|-------------------|----------------------|----------------|----------------------|
E|-------------------|----------------------|----------------|----------------------|

   Q    E   Q    E     Q    E   E   E   E     Q    H       H.  
E|-------------------|----------------------|------0-----|-5----------||
B|-2--------2--------|-2----3---2---0-------|-0----------|-2----------||
G|------2--------2---|------------------2---|------------|-2----------||
D|----------4--------|----------------------|------------|-2----------||
A|-4-----------------|----------4-----------|------------|-0----------||
E|-------------------|-2--------------------|------------|------------||
Login or Register to remove this ad.