Hot Head Hop (Donkey Kong Country 2) Guitar Tab

Submitted: Jun 15, 2009 by RexLeRouge (Last updated: Jun 15, 2009)

4
Average: 4 (4 votes)
Download | Listen
Game: Donkey Kong Country 2
Composer(s): Dave Wise
Style: Transcription
Series: Donkey Kong

Click here for a video example.

AutoScroll: Slow | Medium | Fast
Donkey Kong Country 2 - Hot Head Hop           

Composed by: Dave Wise
Tabbed by: RexLeRouge

This tab is in three parts Melodie first and Background guitar second which is here and the bass tab which can be found Here                                                                


Mélodie
      W                   W                   W                 
E||--------------------|-------------------|-------------------|
B||--------------------|-------------------|-------------------|
G||*-------------------|-------------------|-------------------|
D||*-------------------|-------------------|-------------------|
A||--------------------|-------------------|-------------------|
E||--------------------|-------------------|-------------------|


  W                   W                   W                   W                 
-------------------|-------------------|-------------------|-------------------|
-------------------|-------------------|-------------------|-------------------|
-------------------|-------------------|-------------------|-------------------|
-------------------|-------------------|-------------------|-------------------|
-------------------|-------------------|-------------------|-------------------|
-------------------|-------------------|-------------------|-------------------|


  W                   W                   W                   W                 
-------------------|-------------------|-------------------|-------------------|
-------------------|-------------------|-------------------|-------------------|
-------------------|-------------------|-------------------|-------------------|
-------------------|-------------------|-------------------|-------------------|
-------------------|-------------------|-------------------|-------------------|
-------------------|-------------------|-------------------|-------------------|


  W                   E  E  E  S E   S Q.        E  E  E  S  E  S E  E  E   
-------------------|-----8--7--8-7------------|-----8--7--8-10--L-8--7--8--|
-------------------|----------------10-L------|----------------------------|
-------------------|--------------------------|----------------------------|
-------------------|--------------------------|----------------------------|
-------------------|--------------------------|----------------------------|
-------------------|--------------------------|----------------------------|


  E   E   E  S  S H           W                   E  E  E  S E   S Q.      
--7------------------------|-------------------|-----8--7--8-7------------|
-----10--10--8-10-L--------|-------------------|----------------10-L------|
---------------------------|-------------------|--------------------------|
---------------------------|-------------------|--------------------------|
---------------------------|-------------------|--------------------------|
---------------------------|-------------------|--------------------------|


   Q    Q    Q    Q       E   E   E  S  S H           W                 
--10----8----7----8----|--7------------------------|-------------------|
-----------------------|-----10--10--8-10-L--------|-------------------|
-----------------------|---------------------------|-------------------|
-----------------------|---------------------------|-------------------|
-----------------------|---------------------------|-------------------|
-----------------------|---------------------------|-------------------|


  W                   W                   W                   W                 
-------------------|-------------------|-------------------|-------------------|
-------------------|-------------------|-------------------|-------------------|
-------------------|-------------------|-------------------|-------------------|
-------------------|-------------------|-------------------|-------------------|
-------------------|-------------------|-------------------|-------------------|
-------------------|-------------------|-------------------|-------------------|


  W                   W                   W                   W                 
-------------------|-------------------|-------------------|-------------------|
-------------------|-------------------|-------------------|-------------------|
-------------------|-------------------|-------------------|-------------------|
-------------------|-------------------|-------------------|-------------------|
-------------------|-------------------|-------------------|-------------------|
-------------------|-------------------|-------------------|-------------------|


  W                   W                   W                   W                 
-------------------|-------------------|-------------------|-------------------|
-------------------|-------------------|-------------------|-------------------|
-------------------|-------------------|-------------------|-------------------|
-------------------|-------------------|-------------------|-------------------|
-------------------|-------------------|-------------------|-------------------|
-------------------|-------------------|-------------------|-------------------|


  W                   E  E   E  E  E.  E.   E     Q     E   E  H         
-------------------|---------------8-----------|------------------------|
-------------------|------------8------8-------|------------------------|
-------------------|-----9--10-------------10--|--9---------------------|
-------------------|---------------------------|-------10--10--L--------|
-------------------|---------------------------|------------------------|
-------------------|---------------------------|------------------------|


  E  E   E  E  E.  E.   E     Q     E  Q     Q.      
---------------8-----------|------------------------|
------------8------8-------|------------------------|
-----9--10-------------10--|--9----10--9------------|
---------------------------|----------------10------|
---------------------------|------------------------|
---------------------------|------------------------|


  E  E   E  E  E.  E.   E      W                   W                 
---------------8---8---10--|--10----------------|-------------------|
------------8--------------|--------------------|-------------------|
-----9--10-----------------|--------------------|-------------------|
---------------------------|--------------------|-------------------|
---------------------------|--------------------|-------------------|
---------------------------|--------------------|-------------------|


  W                   E  E   E  E  E.   E.  E     W                 
-------------------|---------------------------|-------------------|
-------------------|------------8--8-----------|-------------------|
-------------------|-----9--10---------10---9--|--9----------------|
-------------------|---------------------------|-------------------|
-------------------|---------------------------|-------------------|
-------------------|---------------------------|-------------------|


  E  E   E  E  E.   E.  E     Q     E  Q     Q.      
---------------------------|------------------------|
------------8--8-----------|------------------------|
-----9--10---------10---9--|--9----10--9------------|
---------------------------|----------------10------|
---------------------------|------------------------|
---------------------------|------------------------|


  E  E   E  E  E.   E.  E     W                   E  E  E  E   E  E  Q       
---------------------------|-------------------|---------------------------||
------------8--8-----------|-------------------|---------------------------||
-----9--10---------10---9--|--7----------------|-----7--7--9--10--9--7----*||
---------------------------|-------------------|--------------------------*||
---------------------------|-------------------|---------------------------||
---------------------------|-------------------|---------------------------||
                                


                          ~Back Guitar~ 


Arpège
E||--------|-------|-------|-------|-------|-------|-------|-------|
B||--------|-------|-------|-------|-------|-------|-------|-------|
G||*-------|-------|-------|-------|-------|-------|-------|-------|
D||*-------|-------|-------|-------|-------|-------|-------|-------|
A||--------|-------|-------|-------|-------|-------|-------|-------|
E||--------|-------|-------|-------|-------|-------|-------|-------|


  E  E  E  E  E  E  E  E     E  E  E  E  E  E  E  E   
-----------3--------------|-----------3--------------|
-----5--3--------3--------|-----5--3--------3--------|
--2-----------5-----4--5--|--2-----------5-----4--5--|
--------------------------|--------------------------|
--------------------------|--------------------------|
--------------------------|--------------------------|


  E  E  E  E  E  E  E  E     E  E  E  E  E  E  E  E   
-----------3--------------|-----------3--------------|
-----5--3--------3--------|-----5--3--------3--------|
--2-----------5-----4--5--|--2-----------5-----4--5--|
--------------------------|--------------------------|
--------------------------|--------------------------|
--------------------------|--------------------------|


  E  E  E  E  E  E  E  E     E  E  E  E  E  E  E  E   
-----------3--------------|-----------3--------------|
-----5--3--------3--------|-----5--3--------3--------|
--2-----------5-----4--5--|--2-----------5-----4--5--|
--------------------------|--------------------------|
--------------------------|--------------------------|
--------------------------|--------------------------|


  E  E  E  E  E  E  E  E     E  E  E  E  E  E  E  E   
-----------3--------------|-----------3--------------|
-----5--3--------3--------|-----5--3--------3--------|
--2-----------5-----4--5--|--2-----------5-----4--5--|
--------------------------|--------------------------|
--------------------------|--------------------------|
--------------------------|--------------------------|


  E  E  E  E  E  E  E  E     E  E  E  E  E  E  E  E   
-----------3--------------|-----------3--------------|
-----5--3--------3--------|-----5--3--------3--------|
--2-----------5-----4--5--|--2-----------5-----4--5--|
--------------------------|--------------------------|
--------------------------|--------------------------|
--------------------------|--------------------------|


  E  E  E  E  E  E  E  E     E  E  E  E  E  E  E  E   
-----------3--------------|-----------3--------------|
-----5--3--------3--------|-----5--3--------3--------|
--2-----------5-----4--5--|--2-----------5-----4--5--|
--------------------------|--------------------------|
--------------------------|--------------------------|
--------------------------|--------------------------|


  S S S S S S S S S S S S S S S S    S S S S S S S S S S S S S S E   
--0-----0-----0-----0-----1-----1-|--3-----3-----3-----3-----3------|
----1-----1-----1-----1-----1-----|----1-----1-----1-----1-----1----|
------2-----2-----2-----2-----2---|------2-----2-----2-----2-----2--|
----------------------------------|---------------------------------|
----------------------------------|---------------------------------|
----------------------------------|---------------------------------|


  S S S S S S S S S S S S S S S S    S S S S S S S S S S S S S S E   
--0-----0-----0-----0-----1-----1-|--3-----3-----3-----3-----3------|
----1-----1-----1-----1-----1-----|----1-----1-----1-----1-----1----|
------2-----2-----2-----2-----2---|------2-----2-----2-----2-----2--|
----------------------------------|---------------------------------|
----------------------------------|---------------------------------|
----------------------------------|---------------------------------|


  S S S S S S S S S S S S S S S S    S S S S S S S S S S S S S S E   
--0-----0-----0-----0-----1-----1-|--3-----3-----3-----3-----3------|
----1-----1-----1-----1-----1-----|----1-----1-----1-----1-----1----|
------2-----2-----2-----2-----2---|------2-----2-----2-----2-----2--|
----------------------------------|---------------------------------|
----------------------------------|---------------------------------|
----------------------------------|---------------------------------|


  S S S S S S S S S S S S S S S S    S S S S S S S S S S S S S S E   
--0-----0-----0-----0-----1-----1-|--3-----3-----3-----3-----3------|
----1-----1-----1-----1-----1-----|----1-----1-----1-----1-----1----|
------2-----2-----2-----2-----2---|------2-----2-----2-----2-----2--|
----------------------------------|---------------------------------|
----------------------------------|---------------------------------|
----------------------------------|---------------------------------|


  W                   W                   W                   W                 
-------------------|-------------------|-------------------|-------------------|
-------------------|-------------------|-------------------|-------------------|
-------------------|-------------------|-------------------|-------------------|
-------------------|-------------------|-------------------|-------------------|
-------------------|-------------------|-------------------|-------------------|
-------------------|-------------------|-------------------|-------------------|


  E   E  E   E  E  E  E   E     E   E  E   E  E  E  E   E   
-----------------------------|-----------------------------|
-----------------------------|-----------------------------|
--9------9--10--9-----9------|--9------9--10--9-----9------|
-----10------------7-----10--|-----10------------7-----10--|
-----------------------------|-----------------------------|
-----------------------------|-----------------------------|


  E   E  E   E  E  E  E   E     E   E  E   E  E  E  E   E   
-----------------------------|-----------------------------|
-----------------------------|-----------------------------|
--9------9--10--9-----9------|--9------9--10--9-----9------|
-----10------------7-----10--|-----10------------7-----10--|
-----------------------------|-----------------------------|
-----------------------------|-----------------------------|


  E   E  E   E  E  E  E   E     E   E  E   E  E  E  E   E   
-----------------------------|-----------------------------|
-----------------------------|-----------------------------|
--9------9--10--9-----9------|--9------9--10--9-----9------|
-----10------------7-----10--|-----10------------7-----10--|
-----------------------------|-----------------------------|
-----------------------------|-----------------------------|


  E  E  E  E  E  E  E  E     E  E  E  E  E  E  E  E   
--------------------------|--------------------------|
--------------------------|--------------------------|
--7-----7--9--7-----7-----|--7-----7--9--7-----7-----|
-----9-----------9-----9--|-----9-----------9-----9--|
--------------------------|--------------------------|
--------------------------|--------------------------|


  E   E  E   E  E  E  E   E     E   E  E   E  E  E  E   E   
-----------------------------|-----------------------------|
-----------------------------|-----------------------------|
--9------9--10--9-----9------|--9------9--10--9-----9------|
-----10------------7-----10--|-----10------------7-----10--|
-----------------------------|-----------------------------|
-----------------------------|-----------------------------|


  E   E  E   E  E  E  E   E     E   E  E   E  E  E  E   E   
-----------------------------|-----------------------------|
-----------------------------|-----------------------------|
--9------9--10--9-----9------|--9------9--10--9-----9------|
-----10------------7-----10--|-----10------------7-----10--|
-----------------------------|-----------------------------|
-----------------------------|-----------------------------|


  E   E  E   E  E  E  E   E     E   E  E   E  E  E  E   E   
-----------------------------|-----------------------------|
-----------------------------|-----------------------------|
--9------9--10--9-----9------|--9------9--10--9-----9------|
-----10------------7-----10--|-----10------------7-----10--|
-----------------------------|-----------------------------|
-----------------------------|-----------------------------|


  E  E  E  E  E  E  E  E     E  E  E  E  E  E  E  E     
--------------------------|---------------------------||
--------------------------|---------------------------||
--7-----7--9--7-----7-----|--7-----7--9--7-----7-----*||
-----9-----------9-----9--|-----9-----------9-----9--*||
--------------------------|---------------------------||
--------------------------|---------------------------||




Duration Legend
---------------
W - whole
H - half
Q - quarter
E - 8th
S - 16th
T - 32nd
X - 64th
. - note dotted
|-n-|  - n-tuplets


Tablature Legend
----------------
L - tied note
x - dead note
g - grace note
(n) - ghost note
> - accentuded note
NH - natural harmonic
AH - artificial harmonic
TH - tapped harmonic
SH - semi harmonic
PH - pitch harmonic
h - hammer on
p - pull off
b - bend
br - bendRelease
pb - preBend
pbr - preBendRelease
brb - bendReleaseBend
\n/ - tremolo bar dip
\n - tremolo bar dive
-/n - tremolo bar Release up
/n\ - tremolo bar inverted dip
/n - tremolo bar return
-\n - tremolo bar Release down
S - shift slide
s - legato slide
/ -  slide into from below or out of upwards
\ -  slide into from above or out of downwards
~ - vibrato
W - wide vibrato

tr - trill
TP - tremolo picking
T - tapping
S - slap
P - pop
< - fade in
^ - brush up
v - brush down
Login or Register to remove this ad.