Ads

Hot-Head Bop (Donkey Kong Country 2) Guitar Tab

Submitted: Jul 10, 2010 by ZizzlinA

3.333335
Average: 3.3 (3 votes)
Download | Listen
Game: Donkey Kong Country 2
Composer(s): Dave Wise
Style: Transcription
Series: Donkey Kong

AutoScroll: Slow | Medium | Fast
-----------------------------------------------------------------------
			     Hot Head Bop – David Wise
-----------------------------------------------------------------------

Game: Donkey Kong Country 2
Song: Hot Head Bop
Composer: David Wise
Tabbed by: Aziz Razavi
Email:[email protected]

Tuning: Standard

          Bassline              4x

e|---------------------------|-------------|-------------|-------------
B|---------------------------|-----8-------|13-12-13-12--|13-12-13-15--
G|---------------------------|--9-7-7-9----|-----------14|-------------
D|---------------------------|-7-------9-10|-------------|-------------
A|---------------------------|-------------|-------------|-------------
E|5-5--5-5--5-5--5-5-5-0-3-4-|-------------|-------------|-------------


e|----------------------|-----------------------------------------|12--
B|13-12-13-12-10-10-8-10|13-12-13-12-----15-13-12-13-12-10-10-8-10|--13
G|----------------------|-----------14-14-------------------------|----
D|----------------------|-----------------------------------------|----
A|----------------------|-----------------------------------------|----
E|----------------------|-----------------------------------------|----

   4x

e|--13----13-15----|--------------|-----8----------|-----8------------|
B|----13-------15--|--------------|----8-8---------|----8-8-----------|
G|14----14-------16|9--9-10-9--9--|9-10---10-9-----|9-10---10-9-10-9--|
D|-----------------|-10---------10|-----------10-10|----------------10|
A|-----------------|---------10---|----------------|------------------|
E|-----------------|--------------|----------------|------------------|

               2x

e|-----8-8-10|----------|--------------|12|12-13-15-15-13-12-12|12-13--
B|----8------|3-3-5-3-3-|--------------|--|--------------------|-------
G|9-10-------|-4-------4|9--9-10-9--9--|--|--------------------|-------
D|-----------|-------5--|-10---------10|--|--------------------|-------
A|-----------|----------|---------10---|--|--------------------|-------
E|-----------|----------|--------------|--|--------------------|-------

e|15-15-13-12-12-----|12-13-15-15-13-12--|-----12-13-12--|
B|--------------13-13|-----------------15|15-15--------15|
G|-------------------|-------------------|---------------|
D|-------------------|-------------------|---------------|
A|-------------------|-------------------|---------------|
E|-------------------|-------------------|---------------|

************************************

| /   slide up
| \   slide down
| h   hammer-on
| p   pull-off
| ~   vibrato
| +   harmonic
| x   Mute note
| b   Bend
| pb  Pre-bend
| br  Bend release
| pbr Pre-bend release
| brb Bend release bend

************************************
Login or Register to remove this ad.