Ads

Crocodile Cacophony (Donkey Kong Country 2) Guitar Tab

Submitted: Jul 11, 2010 by ZizzlinA

3
Average: 3 (2 votes)
Download | Listen
Game: Donkey Kong Country 2
Composer(s): Dave Wise
Style: Transcription
Series: Donkey Kong

AutoScroll: Slow | Medium | Fast
-----------------------------------------------------------------------
                      Crocodile Cacophony – David Wise
-----------------------------------------------------------------------

Game: Donkey Kong Country 2
Song: Crocodile Cacophony
Composer: David Wise
Tabbed by: Aziz Razavi
Email:[email protected]

Tuning: standard
                                                 2x *listen to music
                                                 |              |
                                                 V              v

e|---------------------------------------------------------|-----------
B|------------------------------7-8--9-10-11-11-11-11-11-11|-10-10-10-10
G|7-8-9--9-10-10-h-11--9-10-11---------------10-10-10-10-10|--9--9--9--9
D|---------------------------------------------------------|------------
A|---------------------------------------------------------|------------
E|---------------------------------------------------------|------------



e|--|------------------------|------------------------|----------------
B|10|------------------------|------------------------|----------------
G|-9|8-7-8-7-8-7-8-7-8-7-10-7|8-7-8-7-8-7-8-7-8-7-10-7|----------------
D|--|---8---8-------8---8----|---7---7-------7---7----|----------------
A|--|------------------------|------------------------|-------1------1-
E|--|------------------------|------------------------|3-3-3-3-3--3-3--

e|----------------|--------------------------------|-------------------
B|----------------|--------------------------------|-------------------
G|----------------|--------------------------------|-------------------
D|----------------|--------------------------------|---3-5-7-3-5-5-3-5-
A|-------1--------|-------1------1--------1--------|5-5----------------
E|3-3-3-3-3--3-3-1|3-3-3-3-3--3-3--3-3-3-3-3--3-3-5|-------------------

                          *bend 13 to 15                  *bend 13to 15

e|--------------------|------------------------------------------------
B|--------------------|--13b15-15-15-13-11-10-11-10-11-10—13b15-15-15--
G|--------------------|12--------------------------------12------------
D|7-3-3-5-7-3-5-5-3-2-|------------------------------------------------
A|---5---------------5|------------------------------------------------
E|--------------------|------------------------------------------------

e|---------------------------------------|--------------------------|
B|13-11-10-11-10-13-11-10-11-/-13-11-/-15|--------------------------|
G|---------------------------------------|--------------------------|
D|---------------------------------------|--------------------------|
A|---------------------------------------|5-5-5--5-5-5--5-5-5--5-5-5|
E|---------------------------------------|3-3-3--3-3-3--3-3-3--3-3-3|

************************************

| /   slide up
| \   slide down
| h   hammer-on
| p   pull-off
| ~   vibrato
| +   harmonic
| x   Mute note
| b   Bend
| pb  Pre-bend
| br  Bend release
| pbr Pre-bend release
| brb Bend release bend

************************************
Login or Register to remove this ad.