Crocodile Cacophony (Donkey Kong Country 2) Guitar Tab

Submitted: Nov 23, 2009 by ltm_1988

3
Average: 3 (2 votes)
Download | Listen
Game: Donkey Kong Country 2
Composer(s): Dave Wise
Style: Alternate picking, Transcription
Series: Donkey Kong

AutoScroll: Slow | Medium | Fast
Crocodile Cacophony
Donkey Kong Country 2
David Wise
ltm_1988
11/22/09

e|----------0-0h1--0-1-2--2-3-356-|666x4-66-555x4-55-repeat------------------| *listen to song for timing*
B|-3-4-4--4-----------------------|666x4-66-555x4-55-------------------------|
G|---------------------------------------------------------------------------|
D|---------------------------------------------------------------------------|
A|---------------------------------------------------------------------------|
E|---------------------------------------------------------------------------|

e|---------------------------------------------------------------------------|
B|-4-3---4-3---4-3-4-3---4-3---6-3-4-3---4-3---4-3-4-3---4-3---6-3-----------|
G|-----3-----3---------3-----3---------3-----3---------3-----3---------------|
D|---------------------------------------------------------------------------|
A|---------------------------------------------------------------------------|
E|---------------------------------------------------------------------------|

e|---------------------------------------------------------------------------------|
B|---------------------------------------------------------------------------------|
G|---------------------------------------------------------------------------------|
D|---------------------------------------------------------------------------------|
A|---------1--------1----------1-------------------1--------1----------1-----------|
E|-3-3-3-3---3--3-3----3-3-3-3---3--3-3-1--3-3-3-3---3--3-3----3-3-3-3---3--3-3-1--|

e|---------------------------------------------------------------------------|
B|---------------------------------------------------------------------------|
G|-------0-2----0-0---0-2------------0-2----0-0------------------------------|
D|-0-0h3------3-----3-----3-0--0-0h3------3-----3-2-0------------------------|
A|---------------------------------------------------------------------------|
E|---------------------------------------------------------------------------|

e|---------------------------------------------------------------------------|
B|-3-3-3--1------------------3-3-3--1------------1-------1---3---------------|
G|----------3-2-2-3-2-3-2-0-----------3-2-2-3-2----3-2-3---3-----------------|
D|---------------------------------------------------------------------------|
A|---------------------------------------------------------------------------|
E|---------------------------------------------------------------------------|

e|---------------------------------------------------------------------------------|
B|---------------------------------------------------------------------------------|
G|---------------------------------------------------------------------------------|
D|---------------------------------------------------------------------------------|
A|---------1--------1----------1-------------------1--------1----------1-----------|
E|-3-3-3-3---3--3-3----3-3-3-3---3--3-3-1--3-3-3-3---3--3-3----3-3-3-3---3--3-3-1--|
Login or Register to remove this ad.