Ads

Bayou Boogie (Donkey Kong Country 2) Guitar Tab

Submitted: Nov 13, 2009 by RexLeRouge

4
Average: 4 (4 votes)
Download | Listen
Game: Donkey Kong Country 2
Composer(s): Dave Wise
Style: 2 or more instruments, Transcription
Series: Donkey Kong

AutoScroll: Slow | Medium | Fast
Bayou Boogie
Donkey Kong Country 2
Tabbed by RexLeRouge


Mélodie
      W                   W                   E  E  E   Q    E   E   E   
E||--------------------|-------------------|----------------------------|
B||--------------------|-------------------|--------8-------------------|
G||*-------------------|-------------------|-----7-----------7----------|
D||*-------------------|-------------------|--7--------10-----------10--|
A||--------------------|-------------------|--------------------10------|
E||--------------------|-------------------|----------------------------|


  E  E  E   Q    E   E   E     E   E   E  Q     E   E  E   
----------------------------|-----------------------------|
--------8-------------------|---------10------------------|
-----7-----------7----------|-------------9----12------9--|
--7--------10-----------10--|--9--10---------------12-----|
--------------------10------|-----------------------------|
----------------------------|-----------------------------|


  E   E   E  Q     E   E  E      E  E   E   E   Q.      S S  
-----------------------------|------------------------------|
---------10------------------|------------------------------|
-------------9----12------9--|--10--9---------------------9-|
--9--10---------------12-----|---------12--10----------12---|
-----------------------------|-----------------12-----------|
-----------------------------|------------------------------|


   E  E   E   Q     E   Q        Q     E  Q     E  E   E   
-----------------------------|----------------------------|
-----------------------------|----------------------------|
--10--9------------12--------|----------------------------|
---------12--10--------10----|--10--------9----10---------|
-----------------------------|--------10-----------8--10--|
-----------------------------|----------------------------|


  E   E   E  Q     E   E   E     W                   W                 
------------------------------|-------------------|-------------------|
------------------------------|-------------------|-------------------|
------------------------------|-------------------|-------------------|
--9--10------9----10----------|-------------------|-------------------|
---------10-----------10--12--|-------------------|-------------------|
------------------------------|-------------------|-------------------|


  W                   W                   E   S E.   S Q.     S S  S  
-------------------|-------------------|-----------------------------|
-------------------|-------------------|-----10-8---10---------------|
-------------------|-------------------|--9------------9--------7----|
-------------------|-------------------|--------------------------10-|
-------------------|-------------------|-----------------------------|
-------------------|-------------------|-----------------------------|


  S S E  H.              E   S E.   S S H           E   S E.   S E.  S  S Q     
----------------------|--------------------------|---------------8---7---------|
----------------------|-----10-8---10------------|-----10-8---10-------10-L----|
--7-9-L--L------------|--9------------9-L--------|-----------------------------|
----------------------|--------------------------|-----------------------------|
----------------------|--------------------------|-----------------------------|
----------------------|--------------------------|-----------------------------|


   E  S  E.   S  S Q.      S S     E  S  E.   Q     E   Q     
-------------------------------|-----------------------------|
-------------------------------|-----------------------------|
--10--9----------------------9-|--10--9------------12--------|
--------12---10-----------12---|--------12---10--------10----|
----------------12-L-----------|-----------------------------|
-------------------------------|-----------------------------|


   W                    S S  E   S  S E  Q     E  E     W                 
--------------------|--------------------------------|-------------------|
--------------------|--------------------------------|-------------------|
--------------------|-----------------9--9--------9--|--L----------------|
--10----------------|-----9-10--10-12---------12-----|-------------------|
--------------------|--12----------------------------|-------------------|
--------------------|--------------------------------|-------------------|


  W                   
--------------------||
--------------------||
-------------------*||
-------------------*||
--------------------||
--------------------||


Fond
      W                   W                   W                 
E||--------------------|-------------------|-------------------|
B||--------------------|-------------------|-------------------|
G||*-------------------|-------------------|-------------------|
D||*-------------------|-------------------|-------------------|
A||--------------------|-------------------|-------------------|
E||--------------------|-------------------|-------------------|


  W                   W                   W                   W                 
-------------------|-------------------|-------------------|-------------------|
-------------------|-------------------|-------------------|-------------------|
-------------------|-------------------|-------------------|-------------------|
-------------------|-------------------|-------------------|-------------------|
-------------------|-------------------|-------------------|-------------------|
-------------------|-------------------|-------------------|-------------------|


  W                   W                   W                   W                 
-------------------|-------------------|-------------------|-------------------|
-------------------|-------------------|-------------------|-------------------|
-------------------|-------------------|-------------------|-------------------|
-------------------|-------------------|-------------------|-------------------|
-------------------|-------------------|-------------------|-------------------|
-------------------|-------------------|-------------------|-------------------|


  W                   E  E  E   E  E  E  E  E     E  E  E   E  E  E  E  E   
-------------------|---------------------------|---------------------------|
-------------------|---------------------------|---------------------------|
-------------------|-----7--9--10--9--7-----7--|-----7--9--10--9--7-----7--|
-------------------|--7------------------7-----|--7------------------7-----|
-------------------|---------------------------|---------------------------|
-------------------|---------------------------|---------------------------|


  E  E  E   E  E  E  E  E     E  E  E   E  E  E  E  E   
---------------------------|---------------------------|
---------------------------|---------------------------|
-----7--9--10--9--7-----7--|-----7--9--10--9--7-----7--|
--7------------------7-----|--7------------------7-----|
---------------------------|---------------------------|
---------------------------|---------------------------|


  E  E  E   E  E  E  E  E     E  E  E   E  E  E  E  E   
---------------------------|---------------------------|
---------------------------|---------------------------|
-----7--9--10--9--7-----7--|-----7--9--10--9--7-----7--|
--7------------------7-----|--7------------------7-----|
---------------------------|---------------------------|
---------------------------|---------------------------|


  E  E  E   E  E  E  E  E     E  E  E   E  E  E  E  E   
---------------------------|---------------------------|
---------------------------|---------------------------|
-----7--9--10--9--7-----7--|-----7--9--10--9--7-----7--|
--7------------------7-----|--7------------------7-----|
---------------------------|---------------------------|
---------------------------|---------------------------|


  E  E  E   E  E  E  E  E     E  E  E   E  E  E  E  E   
---------------------------|---------------------------|
---------------------------|---------------------------|
-----7--9--10--9--7-----7--|-----7--9--10--9--7-----7--|
--7------------------7-----|--7------------------7-----|
---------------------------|---------------------------|
---------------------------|---------------------------|


  E  E  E   E  E  E  E  E     E  E  E   E  E  E  E  E     
---------------------------|----------------------------||
---------------------------|----------------------------||
-----7--9--10--9--7-----7--|-----7--9--10--9--7-----7--*||
--7------------------7-----|--7------------------7-----*||
---------------------------|----------------------------||
---------------------------|----------------------------||
Login or Register to remove this ad.