Ads

DK Jungle 1 Theme (Donkey Kong Barrel Blast) Guitar Tab

Submitted: May 04, 2009 by hslesperance (Last updated: Mar 30, 2014)

0
Download | Listen
Game: Donkey Kong Barrel Blast
Composer(s): Unknown
Style: Transcription
Series: Donkey Kong

AutoScroll: Slow | Medium | Fast
DK Jungle 1 Theme
Donkey Kong Barrel Blast
Composer Takashi Kouga
Tabbed by hslesperance
11/8/08

Standard Tuning

e---10-7--------------------------------------------------------
B-----------------------8---------------------------------------
G------------------------------------7-9-10--9--10--9-10--10-9--
D---------------------------------------------------------------
A---------------------------------------------------------------
E---------------------------------------------------------------

e------------------------------------10-7-----------------------
B--------------------------------------------------------8------
G---7---------------7-------------------------------------------
D------10--9---10-----------------------------------------------
A---------------------------------------------------------------
E---------------------------------------------------------------

e---10-12-13--12-10-12--10----10----------------------10--------
B--------------------------13-----13-12-13--12-10-12------------
G---------------------------------------------------------12----
D---------------------------------------------------------------
A---------------------------------------------------------------
E---------------------------------------------------------------

e-------------------------------------------5-------------------
B---6--6--5-6-6--5----------6--6--5-6-6--8-----8----------------
G-------------------7--4----------------------------------------
D---------------------------------------------------------------
A---------------------------------------------------------------
E---------------------------------------------------------------

e---------------------------------1---1-3-5---5-8-7-8-10--------
B---6--6--5-6-6--5--------------3---3-------8------------8------
G-------------------7--5-4--2-4---------------------------------
D---------------------------------------------------------------
A---------------------------------------------------------------
E---------------------------------------------------------------

e-------------------------------------------5-------------------
B---6--6--5-6-6--5----------6--6--5-6-6--8-----8----------------
G-------------------7--4----------------------------------------
D---------------------------------------------------------------
A---------------------------------------------------------------
E---------------------------------------------------------------

e-------------------------------3-------------------------------
B---6--6--5-6-6--5-----------3----------------------------------
G-------------------7--5-4--------------------------------------
D---------------------------------------------------------------
A---------------------------------------------------------------
E---------------------------------------------------------------

e---10-7--------------------------------------------------------
B-----------------------8---------------------------------------
G------------------------------------7-9-10--9--10--9-10--10-9--
D---------------------------------------------------------------
A---------------------------------------------------------------
E---------------------------------------------------------------

e-------------------------------------10-7----------------------
B---------------------------------------------------------8-----
G---7----------------7------------------------------------------
D------10---9---10----------------------------------------------
A---------------------------------------------------------------
E---------------------------------------------------------------

e---10-12-13--12-10-12--10----10-----------------------10-------
B--------------------------13-----13-12-13--12-10-12------------
G----------------------------------------------------------12---
D---------------------------------------------------------------
A---------------------------------------------------------------
E---------------------------------------------------------------

e-------3---5--------7--------5---------5--7------------5-------
B---3-5---5---------------------8-7--8--------------------------
G---------------------------------------------------------------
D---------------------------------------------------------------
A---------------------------------------------------------------
E---------------------------------------------------------------

e---7--------10--7----------7-----------5--------7--------5-----
B---------------------10-------8----------------------------8-7-
G---------------------------------------------------------------
D---------------------------------------------------------------
A---------------------------------------------------------------
E---------------------------------------------------------------

e------5--7---5--------7----------------15----------------------
B---8---------------------------15--15--------------------------
G---------------------------------------------------------------
D---------------------------------------------------------------
A---------------------------------------------------------------
E---------------------------------------------------------------
Login or Register to remove this ad.