Ads

Jungle Japes (Donkey Kong 64) Guitar Tab

Submitted: May 14, 2021 by judgexii (Last updated: Jun 03, 2021)

0
Download | Listen
Game: Donkey Kong 64
Composer(s): Grant Kirkhope
Style: Fingerstyle
Series: Donkey Kong

AutoScroll: Slow | Medium | Fast
"Jungle Japes" - Donkey Kong 64
Composers : Grant Kirkhope
Arrangement : judgexii
Tuning : Standard EADGBe
BPM : 196 (4/4 time)

Arranged in straight eighths, but play all parts with a swing (and don't forget to make animal noises)!

   Intro
   q    q    q    q              q    q    e  e  q
e-----------------------------|-----------------------------||
B-----------------------------|-----------------------------||
G-----------------------------|-----------------------------||
D-----------------------------|-----------------------------||
A-----------------------------|-----------------------------||
E--5----5----0----0-----------|--1----1----3--0--3----------|| x4

   q    q    q    q              q    q    e  e  q             q    q    q    q              q    e  q    e  q        
e-----------------------------|-----------------------------|-----------------------------|-----------------------------|
B-----------------------------|-----------------------------|-----------------------------|-----------------------------|
G-----------------------------|-----------------------------|-----------------------------|-----------------------------|
D-----------------------------|-----------------------------|-----------------------------|-----------------------------|
A-----------------------------|-----------------------------|-----------------------------|-------3--2----0-------------|
E--5----5----0----0-----------|--1----1----3--0--3----------|--5----5----0----0-----------|--1---------------3----------|

   e  e  q    q    q             e  e  q    q    q             e  e  q    q    q             e e  e  q    e  q
e-----5-------5---------------|-----0-------5---------------|-----5-------5---------------|--4/5-----5------------------||
B-----5-------5---------------|-----1-------5---------------|-----5-------5---------------|--4/5-----5------------------||
G-----5-------5---------------|-----2-------5---------------|-----5-------5---------------|--4/5-----5------------------||
D-----------------------------|-----------------------------|-----------------------------|-----------------------------||
A-----------------------------|-----------------------------|-----------------------------|-------3--2----0-------------||
E--5-----5----0----0----------|--1-----1----3----3----------|--5-----5----0----0----------|--1---------------3----------||

   Part 1
   q    e  e  e  e  e  e         e  e  e  e  e  e  q           q    e  e  e  e  e  e         q    q    e  e  q
e----------------0------------|-----------0-----------------|----------------0------------|-----------------------------|
B-------------4---------------|--------4--------------------|-------------4-----3--1------|--3--------------------------|
G-------2--5------------------|--2--5-----------------------|-------2--5------------------|-----------------------------|
D----------------------2------|-----------------------------|-----------------------------|-----------------------------|
A--0----0---------------------|--0-----0--------------------|--0----0-----3-----2---------|---------------0--2----------|
E-------------0-----0---------|--------------0--0--4--------|-----------------------------|--4----4----4----------------|

   q    e  e  e  e  e  e         e  e  e  e  q     q           e  e  e  e  e  e  e  e        e  e  e  e  q    q 
e-----------------------------|-----------------------------|-----0-----0-----------------|--------------0--------------|
B-------------0--3------------|--------0--3-----------------|--4-----4-----4--3--1--0-----|--1--------1------/5---------|
G-------1--2------------------|--1--2-----------------------|-----------------------------|--------2--------------------|
D----------------------2------|-----------------------------|-----------------------------|-----2-----------------------|
A-------------------2---------|--------------------2--------|--------------------2--------|--0-----3-----2--------------|
E--0----0-----4---------------|--0-----0-----4--------------|--0-----0-----4--------------|-------------------4---------|

                                 Coda
   e  e  e  e  e  e  e  e        e  e  e  e  e  e  q           q    e  e  e  e  e  e         e  e e  e  e  e  q
e-----------------0-----------||----------0-----------------|----------------0------------|-----------------------------|
B--------------4--------------||-------4--------------------|-------------4-----3--1------|--3-------3------------------|
G--5--2--2--5-----------------||-2--5-----------------------|-------2--5------------------|-----3/4-----4--2--1---------|
D-----------------------2-----||----------------------------|-----------------------------|-----------------------------|
A--0-----0--------------------||-0-----0--------------------|--0----0-----3-----2---------|-------------------2---------|
E--------------0-----0--------||-------------0--0--4--------|-----------------------------|--4----4-----4---------------|
                                                                                          
                                                                                             First Ending
   q    e  e  e  e  e  e         e  e  e  e  q     q           q     e  e  e  e  e  e        q     e q    e q
e-------------------0--2------|--4--7--4--0-----------------|-----------------------------|-----------------------------||
B-------------0--3------------|-----------------------------|-----------------------------|-----------------------------||
G-------1--2------------------|-----------------------------|--------------------0--1-----|--2--------------------------||
D-----------------------------|-----------------------------|--------1--2--3--4-----------|-----------------------------||
A-------------------2---------|--------------------2--------|--------------------2--------|--0-----3p2------------------||
E--0----0-----4---------------|--0-----0-----4--------------|--0-----0-----4--------------|---------------5p4-----------|| To Intermission 1

   Second Ending
   h         h
e-----------------------------||
B-----------------------------||
G--2---------0/---------------||
D-----------------------------||
A--0--------------------------||
E-----------------------------|| To Intermission 2

   Intermission 1
   h        h                                                  e  q.    h                     h        q    e  e    
e-----------------------------|-----------------------------|-----------------------------|-----------------------------|
B-----------------------------|-----------------------------|-----------------------------|--------------------3--------|
G-----------------------------|-----------------------------|-----7b8b7-------------------|--(7b8b7)--------------------|
D-----------------------------|-----------------------------|-----------------------------|-----------------------------|
A--0--------0-----------------|-----------------------------|--0--------0-----------------|-----------------3-----------|
E-----------------------------|-----------------------------|-----------------------------|------------3----------------|

   e  q.     h                   e  q.    h                    e  q.    h                    e q.   q         e  q
e-----------------------------|-----------------------------|-----------------------------|--4/5----5---------x--x------||
B--1--------------------------|-----------------------------|-----------------------------|--4/5----5---------x--x------||
G-----2-----------------------|-----2-----2-----------------|-----2-----2-----------------|--4/5----5---------x--x------||
D-----------------------------|-----------------------------|-----------------------------|-------------------x--x------||
A--0---------0----------------|-----------------------------|--0--------0-----------------|--0------0-------------------||
E-----------------------------|-----------------------------|-----------------------------|-----------------------------||

   Part 2
   q    e  e  e  e  e  e         q    q    e  e  q             e  e  e  e  e  e  q           q    q    q    q         
e-----------------------------|-----------------------------|-----------------------------|-----------------0-----------|
B----------------------6------|--5--------------------------|-----------------------------|-----------------------------|
G-------------------7---------|------------5----------------|-----4-----5--7--5--4--------|--5----2----5----------------|
D-------------6--7------------|---------------7-------------|-----6-----7--9--7--6--------|-----------------------------|
A--5----5--8--5-----0---------|--0---------0----------------|-----------------------------|--0----2----3----4-----------|
E-------5---------------------|-------0----------0----------|--0-----0-----0-----4--------|-----------------------------|

   q    e  e  e  e  e  e         q    q    e  e  q             q     e  e  e  e  q           q     e  e  q      q              
e-----------------------------|-----------------------------|-----------------------------|--0-----0-----0--------------|
B----------------------6------|--5--------------------------|-----------1--3--1-----------|-----------4-----------------|
G-------------------7---------|------------5----------------|--3-----3-----------3--------|---------------------4-------|
D-------------6--7------------|---------------7-------------|-----------------------------|--------2------------2-------|
A--5----5--8--5-----0---------|--0---------0----------------|--1-----------1--------------|-----------------------------|
E-------5---------------------|-------0----------0----------|--------1-----------1--------|--0-----------0--------------|

   q     e  e  e  e  e  e
e-----------------0-----------||
B--------------4--------------||
G--2-----2--5-----------------||
D-----------------------2-----||
A--0-----0--------------------||
E--------------0-----0--------|| Al Coda

   Intermission 2
   e  e  q    q    e  e          q    e  e q    e  e           q    q    q    q              q    e  e  q     q
e-----------------------------|-----------------------------|-----------------------------|-----------------------------|
B-----5---------------4/------|--5-------4/5-------4/-------|--5----5----2----2-----------|----------2------------------|
G--5--------------------------|-----------------------------|-----------------------------|--2----2-----2-----0---------|
D-----------------------------|-----------------------------|-----------------------------|-----------------------------|
A--3-----3--------------------|--3----3---------3-----------|--4----4----0----0-----------|--4----4-----0---------------|
E-------------3----3----------|------------3----------------|-----------------------------|-------------------3---------|

   First Ending
   q    q    e  e  q             q    q    e  e  q             q    q    q    q              e  e  e  e  q    q
e-----------------------------|-----------------------------|-----------------------------|-----------------------------||
B-----------------------------|-----------------------------|-----------------------------|--------------0--------------||
G---------------0-------------|---------------0-------------|-----------------0-----------|-----0-----2-------0---------||
D--4---------------4----------|--3---------------3----------|--2---------2----------------|-----------------------------||
A-------3----------3----------|------------0-----2----------|--3----3---------------------|-------------------2---------||
E--2---------2----------------|--3----3---------------------|------------3----3-----------|--3-----3-----3--------------|| Back to Intermission 2

   Second Ending
   q    q    e  e  q             e  e  e  e  q    q            q    e  e  q    q             e  e  e  e  q    q
e-----------------------------|-----------------------------|-------------0---------------|-----3-----1--0--------------||
B-----------------------------|-----------------------------|--1-------3-------1----------|-------------------3---------||
G---------------0--2----------|--0--0-----2--4----0---------|-----------------------------|-----------------------------||
D--4---------4----------------|-----------------------------|-----------------------------|-----------------------------||
A-------3----------3----------|--------------0----2---------|--3----3---------------------|--------------0----2---------||
E--2---------2----------------|--3-----3--------------------|-------------3----3----------|--3-----3--------------------||

   Part 3
   q    e  e  e  e  e  e         e  e  e  e  q    q            q    e  e  e  e  e  e         q    q    q    q
e----------------0------------|-----------------------------|-----------------------------|-----------------------------|
B--1----------1---------------|-----5-----------------------|-------------0--1--0---------|--0--------------------------|
G----------0-----------0------|--5--------5-----------------|-------0--2-----------2------|-------0---------------------|
D-------2---------------------|--------5--------------------|-------------------0---------|------------3----0-----------|
A--3----3---------------------|--3-----3--------------------|--3----3---------------------|-------0----2----------------|
E-------------3-----3---------|--------------3----3---------|-------------3---------------|--3--------------3-----------|
                                                               
   q    e  e  e  e  e  e         e  e  e  e  q    q            |-3-|  e  e  e  e  e  e       q    q    q    q 
e----------------1------------|-----------------------------|-----------------------------|-----------------------------|
B----------0--3---------------|-----------0-----------------|-----------------------------|-----------------------------|
G-------0---------------------|--------0--------------------|--4h5p4--3--2--1--0----------|-----------------------------|
D-------------------0---------|--0--3-------------0---------|---------------------4--3----|--2--------------------------|
A-------------2--------2------|--------------2--------------|---------------2-----5-------|--3----3---------2-----------|
E--3----3---------------------|--3-----3--------------------|--3------3-------------------|------------3----------------|

   q    e  e  e  e  e  e         e  e  e  e  q    q            q    e  e  e  e  e  e         q    q    q    q
e----------------0------------|-----------------------------|-----------------------------|-----------------------------|
B-------------1---------------|-----5-----------------------|-------------0--1--0---------|--0--------------------------|
G----------0-----------0------|--5--------5-----------------|-------0--2-----------2------|-------0---------------------|
D-------2---------------------|--------5--------------------|-------------------0---------|------------3----0-----------|
A--3----3---------------------|--3-----3--------------------|--3----3---------------------|-------0----2----------------|
E-------------3-----3---------|--------------3----3---------|-------------3---------------|--3--------------3-----------|
                                                               
   q    e  e  e  e  e  e         e  e  e  e  q    q            |-3-|  e  e  e  e  e  e       q    q    q    q 
e----------------1------------|-----------------------------|-----------------------------|-----------------------------||
B----------0--3---------------|-----------0-----------------|------------------------0----|-----------------------------||
G-------0---------------------|--------0--------------------|--4h5p4--2--1--0--1--2-------|--5--------------------------||
D-------------------0---------|--0--3-------------0---------|---------------------0-------|-----------------------------||
A-------------2--------2------|--------------2--------------|---------------2-------------|--3----3---------2-----------||
E--3----3---------------------|--3-----3--------------------|--3------3-------------------|------------3----------------||

   Outro
   D7                            G7                            C7                            F7
   q    e  e  e  e  e  e         e  e  e  q+q.                 q    e  e  e  e  e  e         e  e  e  q+q.
e-----------------------------|-----------------------------|-----------------------------|-----------------------------|
B-------------6--7------------|--------3--6-----------------|-------------4--5------------|--------1--4-----------------|
G----------7------------------|-----4-----------------------|----------5------------------|-----2-----------------------|
D-------7---------------------|--5--------------------------|-------5---------------------|--3--------------------------|
A--5----------5--------5------|-----------------------------|--3----------3--------3------|-----------------------------|
E-------5-----------5---------|--3--------3-----------------|-------3-----------3---------|--1--------1-----------------|

   Bb7                           E7                            Am
   q    e  e  e  e  e  e         e  e  e  e  e  e  q           q                             
e-----------------------------|-----------0-----------------|-----------------------------|-----------------------------||
B-------------2--3------------|-----0--3--------1--0--------|-----------------------------|-----------------------------||
G----------3------------------|-----------------------------|--2--------------------------|-----------------------------||
D-------3---------------------|--2--------------------------|--2--------------------------|-----------------------------||
A--1----------1--------1------|--------2-----------2--------|--0--------------------------|-----------------------------||
E-------1-----------1---------|--0-----------0--------------|-----------------------------|-----------------------------|| Back to Intro

Note Legend
-----------
w - whole
h - half
q - quarter
e - eighth
. - dotted
|-3-| - triplet eighths

Tab Legend
-----------
() - continue holding note
h - hammer on
p - pull off
/ - slide up
\ - slide down
<> - natural harmonic
^ - brush up
x - slap string
Login or Register to remove this ad.