Ads

The Four Seasons Singing (Divine Divinity) Guitar Tab

Submitted: Apr 19, 2014 by Matatiahu

5
Average: 5 (3 votes)
Download | Listen
Game: Divine Divinity
Composer(s): Kirill Pokrovsky
Style: Arrangement, Fingerstyle

Click here for a video example.

AutoScroll: Slow | Medium | Fast
                             Divine Divinity
			The Four Seasons Singing
			     Kirill Pokrovsky


Tune: Standard


Capo on the fourth fret


E||-----------------|-----------------|-----------------|-----------------|
B||------2---2---1--|-----------------|------2---2---1--|-----------------|
G||------3---3------|------3---3---5--|------3---3------|--3-----5--------|
D||-----------------|------4---4---6--|----3------------|--4-----6--------|
A||--1--------------|----------4------|--1--------------|-----------------|
E||----------1------|----2---------4--|----------1------|--2-----4-----1p4|


-----------------|-----------------|-----------------|-----------------|
------2---2---1--|-----------------|------2---2---1--|-----------------|
------3---3------|------3---3---5--|------3---3------|--3-----5--------|
-----------------|------4---4---6--|----3------------|--4-----6--------|
--1--------------|----------4------|--1--------------|-----------------|
----------1------|----2---------4--|----------1------|--2-----4--------|

-----------------|-----------------|-----------------|-----------------|
--5-----5--------|--4-----2--------|--1--------------|--------2--------|
--6-----6--------|--4-----3-------3|--1-----3--------|--1-----2-------2|
----------------7|--------------3--|--------4-------4|--2-----------2--|
--4-----------7--|--2-----1--------|--------------4--|--------0--------|
--------5--------|-----------------|--1-----2--------|--0--------------|    x2

-----------------|-----------------|-----------------|-----------------|
------2---2---1--|-----------------|------2---2---1--|-----------------|
------3---3------|------3---3---5--|------3---3------|--3-----5--------|
-----------------|------4---4---6--|----3------------|--4-----6--------|
--1--------------|----------4------|--1--------------|-----------------|
----------1------|----2---------4--|----------1------|--2-----4-----1p4|

-----------------|-----------------|-----------------|-----------------|
------2---2---1--|-----------------|------2---2---1--|-----------------|
------3---3------|------3---3---5--|------3---3------|--3-----5--------|
-----------------|------4---4---6--|----3------------|--4-----6--------|
--1--------------|----------4------|--1--------------|-----------------|
----------1------|----2---------4--|----------1------|--2-----4--------|

-----------------|-----------------|-----------------|-----------------|
--5-----5--------|--4-----2-----2--|--1--------------|--------2-----2--|
--6-----6-----6--|--4-----3---3---3|--1-----3-----3--|--1-----2---2---2|
------------7---7|----------3------|--------4---4---4|--2-------2------|
--4-------7------|--2-----1--------|----------4------|--------0--------|
--------5--------|-----------------|--1-----2--------|--0--------------|    x2

Bridge:

--0-------------3|--0--------5p3p0-|----------0---2--|--9----8--4------|
--------------3--|-----------------|--2---4----------|-----------------|
-----------------|-----------------|-----------------|-----------------|
-----------------|-----------------|-----------------|-----------------|
-----------------|-----------------|--4--------------|--4--------------|
--0--------------|--0--------------|-----------------|-----------------|

--0-------------3|--0--------------|-----------------|--9----8--4------|
--------------3--|-----------------|------4---5---7--|-----------------|
-----------------|-----------------|--6-------6------|-----------------|
----------2------|----------2------|------6-------6--|-----------------|
------2-------2--|------2-------2--|--4--------------|--4--------------|
--0--------------|--0--------------|-----------------|-----------------|

----5-5-----5p7-5----|------------------|------------------|-----------
--------7---------7--|--5-5---7-0-------|------------------|-----------
---------------------|------7-----------|------------------|-----------
----------0----------|------------------|--0---------------|-----------
---------------------|------------------|------------------|-----------
--7------------------|--7-------7-------|--5/7-7---7-------|-----------

------------1----|-----------------|------------------|-----------------|
----4-4-1-----4-1|--------1--------|----1-1----1p3-1--|-----------------|
----------1------|--3-3-1----------|--2-----2--------2|--0-0---2--------|
--3--------------|--3-------3------|--3-------3-------|--3---3---3------|
-----------------|-----------------|------------------|-----------------|
-----------------|-----------------|------------------|-----------------|

Verse & chorus:

-----------------|-----------------|-----------------|-----------------|
------2---2---1--|-----------------|------2---2---1--|-----------------|
------3---3------|------3---3---5--|------3---3------|--3-----5--------|
----3------------|------4---4---6--|----3------------|--4-----6--------|
--1--------------|----------4------|--1--------------|-----------------|
----------1------|----2---------4--|----------1------|--2-----4-----1p4|

-----------------|-----------------|-----------------|-----------------|
------2---2---1--|-----------------|------2---2---1--|-----------------|
------3---3------|------3---3---5--|------3---3------|--3-----5--------|
-----------------|------4---4---6--|----3------------|--4-----6--------|
--1--------------|----------4------|--1--------------|-----------------|
----------1------|----2---------4--|----------1------|--2-----4--------|

-----------------|-----------------|-----------------|-----------------|
--5-----5--------|--4-----2--------|--1--------------|--------2--------|
--6-----6--------|--4-----3--------|--1-----3--------|--1-----2--------|
-----------------|-----------------|--------4--------|--2--------------|
--4--------------|--2-----1--------|-----------------|--------0--------|
--------5--------|-----------------|--1-----2--------|--0--------------|    x2
Login or Register to remove this ad.