Is It Admiration for Lord Laharl (Disgaea 2: Cursed Memories) Guitar Tab

Submitted: Feb 17, 2013 by Lemoncobbler

5
Average: 5 (3 votes)
Download | Listen
Game: Disgaea 2: Cursed Memories
Composer(s): Tenpei Sato
Style: Arrangement, Fingerstyle, Percussion

AutoScroll: Slow | Medium | Fast
                       Is it Admiration for Lord Laharl                         
Disgaea 2
Composed by Tenpei Sato
Arranged by Lemoncobbler

                                                      v                   
     Q    Q    H           Q    E   E  E  E   Q       Q    Q    H         
E||---------------------|--------------------------|---------------------|
B||--3------------------|--------------1-----------|-------3----3--------|
G||--0----0----0--------|-------2h--3-----3p--2----|--0---------3--------|
D||------------0--------|--------------------------|--0------------------|
A||---------------------|--0-----------------------|--3---------1--------|
D||--5---------0--------|--------------0-----------|---------------------|


  Q    Q    H           Q    Q    Q    Q       E  E   E   E  Q    Q     
---------------------|----------------------|--------------------------|
-------3----3--------|-------3----2---------|--1-----------------------|
-------2----2--------|--0---------2----2----|--0--3s--2p--0------------|
--4------------------|--0-------------------|----------------4----0----|
--0------------------|----------------------|--3-----------------------|
------------0--------|----------------------|----------------0---------|


  Q    Q    Q    Q       Q    Q    H           Q    Q    H         
----------------------|---------------------|---------------------|
----------------------|---------------------|--3------------------|
-------3----2---------|--0----3----2--------|--0----0----0--------|
--1-------------------|--1------------------|------------0--------|
----------------------|---------------------|---------------------|
--1--------------0----|--1---------4--------|--5---------0--------|


                             v                                           
  Q    E   E  E  E   Q       Q    Q    Q    Q       Q    Q    Q    Q     
--------------------------|----------------------|----------------------|
--------------1-----------|-------3----3---------|-------3----3---------|
-------2h--3-----3p--2----|--0---------3----0----|-------2----2----2----|
--------------------------|--0-------------------|--4--------------4----|
--0-----------------------|--3---------1---------|--0-------------------|
--------------0-----------|----------------------|------------0---------|


  ^                                          ^                  
  H        H           H        Q    Q       H        H         
--------------------|---------------------|--------------------|
--------------------|---------------------|--------------------|
--3-----------------|---------------------|--3-----------------|
--5-----------------|---------------------|--3-----------------|
--5-----------------|----------------0----|--1-----------------|
--5--------0--------|--5--------5---------|-----------3--------|


  ^                                                             
  H        Q    Q       H        H           H        H         
---------------------|--4--------3--------|--2--------3--------|
--2------------------|--5--------5--------|--4--------4--------|
--3------------------|--6--------6--------|--5--------4--------|
--3------------------|--------------------|--------------------|
--1--------1----3----|--------------------|--------------------|
---------------------|--------------------|--------------------|


                         slap guitar at end of measure                  
  Q    Q    Q    Q       Q                             Q    Q     Q     
--4----4----3----3----|--2-----------------------------2----3-----x----|
--5----5----5----5----|--4-----------------------------4----3-----x----|
--6----6----6----6----|--5-----------------------------5----4-----x----|
----------------------|-------------------------------------------x----|
----------------------|-------------------------------------------x----|
----------------------|-------------------------------------------x----|


                            ^                                               
  E  E  E  E  Q    E  E     Q    E  E  Q    E  E     Q    Q    E  E  E  E   
-------------------------|------------------------|------------------------|
-------------------------|--1---------------------|------------------------|
--3--2--0-----0----2--3--|--2----3--2--0----------|--0---------------------|
--0--------4-------------|--2---------------0--0--|--0----0-------0-----0--|
-------------------------|--0---------------------|------------6-----4-----|
--5-----------0----------|-------------0----------|--5---------0-----------|


  Q    Q    Q    E  E     Q.     E  E  E  E  E     Q    Q    Q    E  E   
-----------------------|------------------------|-----------------------|
-----------------3-----|------------------------|--------------------1--|
--------------------3--|--0---------------------|--2---------2----3-----|
--1---------1----------|---------0-----0-----0--|-------4---------------|
--0----3---------------|------------6-----4-----|--0--------------------|
-----------------------|--5---------------------|------------0----------|


  Q    E  E  Q    E  E     Q    E  E  Q    Q       Q    Q    Q    Q     
------------------------|-----------------------|----------------------|
--3----1----------------|-----------------------|----------------------|
--3-------3--2----------|--0---------------3----|------------4---------|
-------------2----2--3--|-------3--1--0----3----|--7----6---------7----|
--1----------0----------|-------------0---------|--4---------4---------|
------------------------|-------------0---------|--4---------4---------|


            ^                                                     
  Q    Q    H           Q    Q    Q    Q       H        H         
---------------------|----------------------|--------------------|
-------0----3--------|--3-------------------|--1--------0--------|
--6---------3--------|--2--------------2----|--------------------|
--5---------3--------|--0---------0---------|--------------------|
--5------------------|-------2--------------|--------------------|
--5---------5--------|----------------------|--------------------|


  Q    Q    Q    Q       Q    Q    Q    Q       W                 
----------------------|----------------------|-------------------|
--1----0----1----0----|--3---------3---------|--L----------------|
----------------------|-------5---------5----|-------------------|
----------------------|----------------------|-------------------|
----------------------|----------------------|-------------------|
--2---------2---------|--3---------3---------|-------------------|


  H        Q    Q       Q    Q    Q    Q       Q    Q    Q    Q     
---------------------|----------------------|----------------------|
---------------------|----------------------|----------------------|
---------------------|-------3----2----3----|-------3----2----3----|
---------------------|-------3--------------|-------3--------------|
---------------------|--1-------------------|--1-------------------|
--x--------x----x----|------------3---------|------------3---------|


                         ^    v                           ^          
  Q    Q    Q    Q       Q    Q    Q    Q       Q    Q    Q    Q     
----------------------|----------------------|----------------------|
------------0---------|----------------------|----------------------|
-------5---------5----|--6----5--------------|-------3----2----3----|
-------4----4----4----|--3---------7----3----|-------3----3----3----|
--3-------------------|-----------------0----|--1-------------------|
------------4---------|-------3----5---------|------------3---------|


            ^                                                            
  Q    Q    Q    E  E     Q    E  E  Q    E  E     Q    E  E  Q    Q     
-----------------------|------------------------|-----------------------|
-----------------------|------------------------|-----------------------|
-------3----2----3--5--|--6----5--3--2----3--5--|--6----5--3--2---------|
-------3----3----------|------------------------|------------------3----|
--1--------------------|------------------------|-----------------------|
------------3----------|--4----------3----------|--4----------3---------|


  Q    Q    Q    Q       Q    Q    Q    Q       Q    Q    Q    Q     
----------------------|----------------------|----------------------|
----------------------|----------------------|------------0---------|
-------3----2----3----|-------3----2----3----|-------5---------5----|
-------3--------------|-------3--------------|-------4----4----4----|
--1-------------------|--1-------------------|--3-------------------|
------------3---------|------------3---------|------------4---------|


  ^    v                                                           
  Q    Q    Q    Q       Q    Q    Q    Q       H        H         
----------------------|----------------------|--------------------|
----------------------|-----------------2----|--------------------|
--6----5--------------|-----------------3----|--5-----------------|
--3---------7----3----|--1----3----4---------|--3--------3--------|
-----------------0----|----------------------|--------------------|
-------3----5---------|--1-------------------|--3-----------------|


                         ^                                           
  Q    Q    Q    Q       Q    E  E  H           Q    Q    Q    Q     
----------------------|----------------------|----------------------|
-----------------2----|--1-------------------|--2--------------2----|
-----------------3----|--2-------------------|-----------------3----|
-------3----4---------|--3----1--------------|--1----3----4---------|
--6-------------------|--0-------4--3--------|------------1---------|
--4-------------------|----------------------|--1-------------------|


  ^                                                                
  H        H           Q    Q    Q    Q       Q    Q    Q    Q     
--------------------|----------------------|----------------------|
--1-----------------|----------------------|----------------------|
--2--------2--------|-------3----2----3----|-------3----2----3----|
--3--------3--------|-------3--------------|-------3--------------|
--0--------3--------|--1-------------------|--1-------------------|
-----------3--------|------------3---------|------------3---------|


                                   ^          
  Q    Q    Q    Q       Q    Q    H          
----------------------|---------------------||
----------------------|---------------------||
-------3----2----3----|-------2-------------||
-------3--------------|--8---------8--------||
--1-------------------|--8----3----8--------||
------------3---------|--8----3----8--------||




Duration Legend
---------------
W - whole
H - half
Q - quarter
E - 8th
S - 16th
T - 32nd
X - 64th
. - note dotted
|-n-|  - n-tuplets


Tablature Legend
----------------
L - tied note
x - dead note
g - grace note
(n) - ghost note
> - accentuded note
NH - natural harmonic
AH - artificial harmonic
TH - tapped harmonic
SH - semi harmonic
PH - pitch harmonic
h - hammer on
p - pull off
b - bend
br - bendRelease
pb - preBend
pbr - preBendRelease
brb - bendReleaseBend
\n/ - tremolo bar dip
\n - tremolo bar dive
-/n - tremolo bar Release up
/n\ - tremolo bar inverted dip
/n - tremolo bar return
-\n - tremolo bar Release down
S - shift slide
s - legato slide
/ -  slide into from below or out of upwards
\ -  slide into from above or out of downwards
~ - vibrato
W - wide vibrato
tr - trill
TP - tremolo picking
T - tapping
S - slap
P - pop
< - fade in
^ - brush up
v - brush down
Login or Register to remove this ad.

1 comment on Is It Admiration for Lord Laharl

This is so fun to play, I

5

This is so fun to play, I love it