Ads

Butterfly (Digimon) Guitar Tab

Submitted: May 12, 2013 by jiyeonn

5
Average: 5 (4 votes)
Download | Listen
Game: Digimon
Composer(s): Jason Gochin
Style: Arrangement, Fingerstyle

AutoScroll: Slow | Medium | Fast
Butterfly
Digimon

Tabbed by J. Ho, 11 May 2013
Tuning: Standard EADGBE
Tempo: 120

E|--------|-----3-------3---3-----------5---|-----3-----------3---3-------0---|-0---3-------3---3---0-------5---|
B|--------|-5-------0-----------5---0-------|---------0---5---5---5---0-------|-0---0---0---0---0---0---0---0---|
G|--------|---------0---------------0-------|---------0---------------0-------|---------0---------------0-------|
D|--------|---------------------------------|---------------------------------|---------------------------------|
A|--------|-3---------------3---------------|-3---------------3---------------|---------------------------------|
E|--------|---------------------------------|---------------------------------|-0---------------0---------------|


E|-----7-------0-------0-------0---|---------------------------------|-------------1----------------|
B|-----0---0---0-------0---3-------|-3---1---1---1-------1---3---4---|-----3---1---1-------4---3----|
G|---------0---------------0-------|-2-------0---2-------2---4---5---|-----4---2--------------------|
D|---------------------------------|---------------------------------|------------------------------|
A|---------------------------------|---------------------------------|-----------------1------------|
E|-0---------------0---------------|-1---------------1---------------|-4----------------------------|


E|------------------------------|---------------------------------|-----3-------3---3-----------5---|
B|-1----3---4---1---3---4---1---|-1---1---3---1---3---1---1---1---|-5-------0-----------5---0-------|
G|-0----0---0---0---0---0---0---|-0---0---0---0---0---0---0---0---|---------0---------------0-------|
D|------------------------------|---------------------------------|---------------------------------|
A|-3------------3-----------3---|---------3-------3-------3---3---|-3---------------3---------------|
E|------------------------------|---------------------------------|---------------------------------|


E|-----3-------3---3--5--3-------0---|-0---3-------3---3---0-------5---|-----7---7---7---7---5---3---0---|
B|---------0-----------------0-------|-0---0---0---0---0---0---0---0---|-----0---0-----------------------|
G|---------0-----------------0-------|---------0---------------0-------|---------0---------------0-------|
D|-----------------------------------|---------------------------------|---------------------------------|
A|-3---------------3-----3-----------|---------------------------------|---------------------------------|
E|-----------------------------------|-0---------------0---------------|-0---------------0---------------|


E|---------------------------------|-------------1----------------|------------------------------|
B|-3---1---1---1-------1---3---4---|-----3---1---1-------4---3----|-1----3---4---1---3---4---1---|
G|-2-------0---2-------2---4---5---|-----4---2--------------------|-0----0---0---0---0---0---0---|
D|---------------------------------|------------------------------|------------------------------|
A|---------------------------------|-----------------1------------|-3------------3-----------3---|
E|-1---------------1---------------|-4----------------------------|------------------------------|


E|-0-----------------------0---0---|-8----7---5---------------0---|-----0---0---0-------0---0---0---|
B|-1---1---3---1---3---1---1---1---|-5----0-----------8---0---0---|-----0---0---0-------0---0---0---|
G|-0---0---0---0---0---0---0-------|------0---------------0-------|---------0---------------0-------|
D|-------------------------0-------|------------------------------|---------------------------------|
A|---------3-------3---------------|-0------------0---------------|---------------------------------|
E|---------------------------------|------------------------------|-0---------------0---------------|


E|-----------------------------0---|-----0-----------0---0---0---0---|-8----7---5---------------0---|
B|-3---1---0---1-------3---0---3---|-----3---0-------3---3---0-------|-5----0-----------8---0---0---|
G|-2-------0---2-------2---0-------|---------0---------------0-------|------0---------------0-------|
D|---------------------------------|---------------------------------|------------------------------|
A|---------------------------------|-3-----------3-------------------|-0------------0---------------|
E|-1---------------1---------------|---------------------------------|------------------------------|


E|-----0---0---0-------0-------0---|-1---0---1---3--------3---4---|-4---4---6----6----3----|
B|-----0---0---0-------0---0---0---|-1---0---1---3----6-------4---|-4---4---6----6----3----|
G|---------0---------------0-------|------------------------------|-0-------7---------4----|
D|---------------------------------|------------------------------|-0-------8---------5----|
A|---------------------------------|------------------------------|-0-------8---------5----|
E|-0---------------0---------------|-1-----------3------------4---|-4-------6---------3----|


E|-3---3---3---3---3---3---3---3---|-3---------------3-----|------------------0---0---0---|
B|-3---3---3---3---3---3---3---3---|-3---6---5---6---3-----|-1----0---3-------0---0---0---|
G|-4---4---4---4---4---4---4---4---|-4---4---4---4---4-----|-0----0---0-----------0-------|
D|-5---5---5---5---5---5---5---5---|-5---------------------|------------------------------|
A|---------------------------------|-----------------------|-3------------3---------------|
E|---------------------------------|-----------------------|------------------------------|


E|------0-----------------------|------------------------------|-0-----------3-------------------|
B|-3----3---3-------1---0---0---|-1----0-----------1---0---1---|-----3---0-----------1---0---1---|
G|-0----0-----------0---0-------|-2----0---2-------2---0-------|-----0---0-----------0---0-------|
D|------------------------------|----------2-------------------|---------------------------------|
A|------------------------------|-0------------0---------------|---------------------------------|
E|-3------------3---------------|------------------------------|-0---------------0---------------|


E|------------------------------|---------------------------------|-----------------------------0---|
B|-1----0---1-------0---0-------|-----3---0---1-------1---0---1---|-1-------0---1---1-------0-------|
G|-2----0---2-----------0---2---|-0-------0---0-------0---0-------|-----2---0-----------2---0-------|
D|-3------------3---------------|-2---------------2---------------|-3---------------3---------------|
A|------------------------------|---------------------------------|---------------------------------|
E|------------------------------|---------------------------------|---------------------------------|


E|-0-------------------------------|------------------0---0---0---|------0-----------------------|
B|-----3---0---1-------3---0---0---|-1----0---3-------1---0---1---|-3----3---3-------1---0---0---|
G|-----0---0---0-------0---0---0---|-0----0---0-----------0-------|-0----0-----------0---0-------|
D|---------------------------------|-2----------------------------|------------------------------|
A|---------------------------------|-3------------3---------------|------------------------------|
E|-3---------------3---------------|------------------------------|-3------------3---------------|


E|------------------------------|-0-----------3-------3--5----------|------------------------------|
B|-1----0-----------1---0---1---|-----3---0-----------------0---1---|-1----0---1-------0---0-------|
G|-2----0---2-------2---0-------|-----0---0-----------------0-------|-2----0---2-----------0---2---|
D|----------2-------------------|-----------------------------------|-3------------3---------------|
A|-0------------0---------------|-----------------------------------|------------------------------|
E|------------------------------|-0---------------0-----------------|------------------------------|


E|---------------------------------|---------------------------------|---------------------------------|
B|-----3---0---1-------1---0---1---|-1-----------1-----------1-------|---------------------------------|
G|-0-------0---0-------0---0-------|-0-----------0-----------0-------|-3-----------3-----------3-------|
D|-2---------------2---------------|---------------------------------|-3-----------3-----------3-------|
A|---------------------------------|---------------------------------|-1---1---1---1---1---1---1---1---|
E|---------------------------------|-4---4---4---4---4---4---4---4---|---------------------------------|


E|------0---0--1--0------------|----------1-------1---1---1---|-0----0---0--1--0------------|
B|-1----0-------------3---1----|-3----0---3-------3---0-------|-1----0-------------3---1----|
G|-0----0----------------------|-0----0---------------0-------|------0----------------------|
D|-----------------------------|------------------------------|-----------------------------|
A|-3---------------------------|-3------------3---------------|-3---------------------------|
E|-----------------------------|------------------------------|-----------------------------|


E|------------------------------|-0----0---0--1--0------------|----------1-------1---1---1---|
B|-3----0---1-------1---1---1---|-1----0-------------3---1----|-3----0---3-------3---0-------|
G|-0----0---0-------0---0-------|------0----------------------|-0----0---------------0-------|
D|------------------------------|-----------------------------|------------------------------|
A|-3------------3---------------|-3---------------------------|-3------------3---------------|
E|------------------------------|-----------------------------|------------------------------|


E|-0----0---0--1--0------------|------------------------------|----------0-------2---2---2---|
B|-1----0-------------3---1----|-3----0---------------0---0---|-3----0---3-------3---0---3---|
G|------0----------------------|-0----0---3-------3---0---0---|-2----0---------------0-------|
D|-----------------------------|----------2-------2-----------|-0------------0---------------|
A|-3---------------------------|-3------------3---------------|------------------------------|
E|-----------------------------|------------------------------|------------------------------|


E|-0----2---0----------------|---------------------------------|-2-----------5---5---7---7----|
B|-2----0-----------3---2----|-3-------0---3-------3---0---3---|-----5---0---5---5---7---7----|
G|------0---------------2----|-4---4---4---4-------4---0---4---|---------0--------------------|
D|----------------------0----|-----4---------------------------|------------------------------|
A|-0------------0------------|-2---------------2---------------|------------------------------|
E|---------------------------|---------------------------------|-2----------------------------|


E|------------------------------|---------------------------------|---------------------------------|
B|-3----0---3-------2---0---0---|-----5---0---3-------3---0---3---|-3---0---0---0---3---0---0---0---|
G|-0----0---0-------0---0---0---|-2-------0---2-------2---0---2---|-0---0---0---0---0---0---0---0---|
D|------------------------------|---------------------------------|-------------------------0-------|
A|------------------------------|---------------------------------|---------------------------------|
E|-3------------3---------------|-2---------------2---------------|-3---------------3---------------|


E|-2---0---------------0---0---0---|----------0-------2---2---2---|-0----2---0----------------|
B|-2---2---0---3-------2---0---2---|-3----0---3-------3---0---3---|-2----0-----------3---2----|
G|---------0---2-----------0-------|-2----0---------------0-------|------0---------------2----|
D|---------------------------------|-0------------0---------------|----------------------0----|
A|-0---------------0---------------|------------------------------|-0------------0------------|
E|---------------------------------|------------------------------|---------------------------|


E|---------------------------------|-2-------------------------------|------------------------------|
B|-3-------0---3-------3---0---3---|-----5---0---3-------2---0---2---|-3----0---3-------2---0---0---|
G|-4---4---4---4-------4---0---4---|---------0---------------0-------|-0----0---0-------0---0---0---|
D|-----4---------------------------|---------------------------------|------------------------------|
A|-2---------------2---------------|---------------------------------|------------------------------|
E|---------------------------------|-2---------------2---------------|-3------------3---------------|


E|---------------------------------|---------------------------------|-2---0---------------0---0---0---|
B|-----5---0---3-------3---0---3---|-3---0---0---0---3---0---0---0---|-2---2---0---3-------2---0---2---|
G|-2-------0---2-------2---0---2---|-0---0---0---0---0---0---0---0---|---------0---2-----------0-------|
D|---------------------------------|-------------------------0-------|---------------------------------|
A|---------------------------------|---------------------------------|-0---------------0---------------|
E|-2---------------2---------------|-3---------------3---------------|---------------------------------|


E|------------------0---0---0---|------0-----------------------|------------------------------|
B|-1----0---3-------1---0---1---|-3----3---3-------1---0---0---|-1----0-----------1---0---1---|
G|-0----0---0-----------0-------|-0----0-----------0---0-------|-2----0---2-------2---0-------|
D|------------------------------|------------------------------|----------2-------------------|
A|-3------------3---------------|------------------------------|-0------------0---------------|
E|------------------------------|-3------------3---------------|------------------------------|


E|-0-----------3-------------------|------------------------------|---------------------------------|
B|-----3---0-----------1---0---1---|-1----0---1-------0---0-------|-----3---0---1-------1---0---1---|
G|-----0---0-----------0---0-------|-2----0---2-----------0---2---|-0-------0---0-------0---0-------|
D|---------------------------------|-3------------3---------------|-2---------------2---------------|
A|---------------------------------|------------------------------|---------------------------------|
E|-0---------------0---------------|------------------------------|---------------------------------|


E|-----------------------------0---|-0-------------------------------|------------------0---0---0---|
B|-1-------0---1---1-------0-------|-----3---0---1-------3---0---3---|-1----0---3-------1---0---1---|
G|-----2---0-----------2---0-------|-----0---0---0-------0---0---0---|-0----0---0-----------0-------|
D|-3---------------3---------------|---------------------------------|------------------------------|
A|---------------------------------|---------------------------------|-3------------3---------------|
E|---------------------------------|-3---------------3---------------|------------------------------|


E|------0-----------------------|------------------------------|-0-----------3-------------------|
B|-3----3---3-------1---0---0---|-1----0-----------1---0---1---|-----3---0-----------1---0---1---|
G|-0----0-----------0---0-------|-2----0---2-------2---0-------|-----0---0-----------0---0-------|
D|------------------------------|----------2-------------------|---------------------------------|
A|------------------------------|-0------------0---------------|---------------------------------|
E|-3------------3---------------|------------------------------|-0---------------0---------------|


E|------------------------------|---------------------------------|-----------------------------0---|
B|-1----0---1-------0---0-------|-----3---0---1-------1---0---1---|-1-------0---1-------1---0---1---|
G|-2----0---2-----------0---2---|-0-------0---0-------0---0-------|-----2---0---------------0-------|
D|-3------------3---------------|-2---------------2---------------|-3---------------3---------------|
A|------------------------------|---------------------------------|---------------------------------|
E|------------------------------|---------------------------------|---------------------------------|


E|-0-------------------------------|------0---0--1--0------------|----------1-------1---1---1---|
B|-----3---0---1-------3---0---3---|-1----0-------------3---1----|-3----0---3-------3---0-------|
G|-----0---0---0-------0---0---0---|-0----0----------------------|-0----0---------------0-------|
D|---------------------------------|-----------------------------|------------------------------|
A|---------------------------------|-3---------------------------|-3------------3---------------|
E|-3---------------3---------------|-----------------------------|------------------------------|


E|-0----0---0--1--0------------|------------------------------|-0----0---0--1--0------------|
B|-1----0-------------3---1----|-3----0---1-------1---1---1---|-1----0-------------3---1----|
G|------0----------------------|-0----0---0-------0---0-------|------0----------------------|
D|-----------------------------|------------------------------|-----------------------------|
A|-3---------------------------|-3------------3---------------|-3---------------------------|
E|-----------------------------|------------------------------|-----------------------------|


E|----------1-------1---1---1---|-0----0---0--1--0------------|------------------------------|
B|-3----0---3-------3---0-------|-1----0-------------3---1----|-3----0---------------0---0---|
G|-0----0---------------0-------|------0----------------------|-0----0---3-------3---0---3---|
D|------------------------------|-----------------------------|----------2-------2-------2---|
A|-3------------3---------------|-3---------------------------|-3------------3---------------|
E|------------------------------|-----------------------------|------------------------------|


E|-------------0----|---------------------|-0------|--------|
B|-1-----3----------|-3---4----3----1-----|-1------|--------|
G|------------------|---------------------|-0------|--------|
D|------------------|---------------------|-2------|--------|
A|------------------|---------------------|-3------|--------|
E|------------------|---------------------|--------|--------|



Login or Register to remove this ad.

3 comments on Butterfly

This is awesome!! :D

5

This is awesome!! :D

fantastic !

5

WARNING : the web page doesn't display the right tab, open the GP5 file to find it, then enjoy ^^

Thanks, not sure why the text

Thanks, not sure why the text file is different, but I'll keep it that way above

Here's a text export of the gp5

     W                   E  E  E  E  E  E  E  E     E  E  E  E  E  E  E  E   
E||-------------------|-----3-----3--3--------5--|-----3--------3--3-----0--|
B||-------------------|--5-----x--------5--x-----|--------x--5--5--5--x-----|
G||-------------------|--------x-----------x-----|--------x-----------x-----|
D||-------------------|--------------------------|--------------------------|
A||-------------------|--3-----------3-----------|--3-----------3-----------|
E||-------------------|--------------------------|--------------------------|


  E  E  E  E  E  E  E  E     E  E  E  E  E  E  E  E   
--0--3-----3--3--0-----5--|-----7-----0-----0-----0--|
--0--0--x--0--0--0--x--0--|-----0--x--0-----0--3-----|
--------x-----------x-----|--------x-----------x-----|
--------------------------|--------------------------|
--------------------------|--------------------------|
--0-----------0-----------|--0-----------0-----------|


  E   E  E  E  E  E  E  E     E  E  E  E  E  E   Q     
---------------------------|-----------1--------------|
--3p--1--x--1-----1--3--4--|-----3--1--1-----4p--3----|
--2------x--2-----2--4--5--|-----4--2-----------------|
---------------------------|--------------------------|
---------------------------|--------------1-----------|
--1------------1-----------|--4-----------------------|


  Q    E  E  E  E  E  E     E  E  E  E  E  E  E  E     E  E  E  E  E  E  E  E   
-------------------------|--------------------------|-----3-----3--3--------5--|
--1----3--4--1--3--4--1--|--L--1--3--1--3--1--1--1--|--5-----x--------5--x-----|
--0----0--0--0--0--0--0--|--L--0--0--0--0--0--0--0--|--------x-----------x-----|
-------------------------|--------------------------|--------------------------|
--3----------3--------3--|--------3-----3-----3--3--|--3-----------3-----------|
-------------------------|--------------------------|--------------------------|


  E  E  E  E  S  S  E  E  E     E  E  E  E  E  E  E  E   
-----3-----3--3h-5p-3-----0--|--0--3-----3--3--0-----5--|
--------x--------------x-----|--0--0--x--0--0--0--x--0--|
--------x--------------x-----|--------x-----------x-----|
-----------------------------|--------------------------|
--3-----------3-----L--------|--------------------------|
-----------------------------|--0-----------0-----------|


  E  E  E  E  E   E  E   E     E   E  E  E  E  E  E  E   
-----7--7--7--7p--5--3p--0--|---------------------------|
-----0--x-------------------|--3p--1--x--1-----1--3--4--|
--------x------------x------|--2------x--2-----2--4--5--|
----------------------------|---------------------------|
----------------------------|---------------------------|
--0-----------0-------------|--1------------1-----------|


  E  E  E  E  E  E   Q       Q    E  E  E  E  E  E     E  E  E  E  E  E  E  E   
-----------1--------------|-------------------------|--L-----------------0--0--|
-----3--1--1-----4p--3----|--1----3--4--1--3--4--1--|--L--1--3--1--3--1--1--1--|
-----4--2-----------------|--0----0--0--0--0--0--0--|--L--0--0--0--0--0--x-----|
--------------------------|-------------------------|--------------------x-----|
--------------1-----------|--3----------3--------3--|--------3-----3-----------|
--4-----------------------|-------------------------|--------------------------|


                                       NH      NH        
  Q    E  E  E  E  E  E     E  E  E    E  E    E  E  E   
--8----7--5-----------0--|-----0--0--<>0-----<>0--0--0--|
--5----x--------8--x--0--|-----0--x--<>0-----<>0--x--0--|
-------x-----------x-----|--------x---------------x-----|
-------------------------|------------------------------|
--0----------0-----------|------------------------------|
-------------------------|--0-------------0-------------|


  E   E  E  E  E  E  E  E     E  E  E  E  E  E  E  E   
------------------------0--|-----0--------0--0--0--0--|
--3p--1--x--1-----3--x--3--|-----3--x-----3--3--x-----|
--2------x--2-----2--x-----|--------x-----------x-----|
---------------------------|--------------------------|
---------------------------|--3--------3--------------|
--1------------1-----------|--------------------------|


                                       NH              
  Q    E  E  E  E  E  E     E  E  E    E  E  E  E  E   
--8----7--5-----------0--|-----0--0--<>0-----0-----0--|
--5----x--------8--x--0--|-----0--x--<>0-----0--x--0--|
-------x-----------x-----|--------x-------------x-----|
-------------------------|----------------------------|
--0----------0-----------|----------------------------|
-------------------------|--0-------------0-----------|


  E  E  E  Q    E  E  E     E  E  Q    Q    Q       E  E  E  E  E  E  E  E   
--1--0--1--3-------3--4--|--L--4--6----6----3----|--3--3--3--3--3--3--3--3--|
--1--0--1--3----6-----4--|--L--4--6----6----3----|--3--3--3--3--3--3--3--3--|
-------------------------|--L-----7---------4----|--4--4--4--4--4--4--4--4--|
-------------------------|--L-----8---------5----|--5--5--5--5--5--5--5--5--|
-------------------------|--L-----8---------5----|--------------------------|
--1--------3----------4--|--L-----6---------3----|--------------------------|


  E  E  E  E  H           Q    E  E  E  E  E  E     Q    E  E  E  E   E  E   
--3-----------3--------|----------------0--0--0--|-------0------------------|
--3--6--5--6--3--------|--1----x--3-----0--x--0--|--3----x--3-----1p--0--L--|
--4--4--4--4--4--------|--0----x--0--------x-----|--0----x--------0---x-----|
--5--------------------|-------------------------|--------------------------|
-----------------------|--3----------3-----------|--------------------------|
-----------------------|-------------------------|--3----------3------------|


  Q    E  E  E  E  E  E     E  E  E  E  E  E  E  E     Q    E  E  E  E  E  E   
-------------------------|--0--------3--------------|-------------------------|
--1----x--------1--x--1--|-----3--x--------1--x--1--|--1----x--1-----0--x-----|
--2----x--2-----2--x-----|-----0--x--------0--x-----|--2----x--2--------x--2--|
----------2--------------|--------------------------|--3----------3-----------|
--0----------0-----------|--------------------------|-------------------------|
-------------------------|--0-----------0-----------|-------------------------|


  E  E  E  E  E  E  E  E     E  E  E  E  E  E  E  E   
--------------------------|-----------------------0--|
-----3--x--1-----1--x--1--|--1-----x--1--1-----x-----|
--0-----x--0-----0--x-----|-----2--x--------2--x-----|
--2-----------2-----------|--3-----------3-----------|
--------------------------|--------------------------|
--------------------------|--------------------------|


                             ^                                                  
  E  E  E  E  E  E  E  E     Q    E  E  E  E  E  E     Q    E  E  E  E   E  E   
--0-----------------------|----------------0--0--0--|-------0------------------|
-----3--x--1-----3--x--0--|--1----x--3-----1--x--1--|--3----x--3-----1p--0--L--|
-----0--x--0-----0--x--0--|--0----x--0--------x-----|--0----x--------0---x-----|
--------------------------|--2----------------------|--------------------------|
--------------------------|--3----------3-----------|--------------------------|
--3-----------3-----------|-------------------------|--3----------3------------|


  Q    E  E  E  E  E  E     E  E  E  E  E  S  S E  E   
-------------------------|--0--------3-----3h-5-------|
--1----x--------1--x--1--|-----3--x-------------x--1--|
--2----x--2-----2--x-----|-----0--x-------------x-----|
----------2--------------|----------------------------|
--0----------0-----------|----------------------------|
-------------------------|--0-----------0-------------|


  Q    E  E  E  E  E  E     E  E  E  E  E  E  E  E     E  E  E  E  E  E  E  E   
-------------------------|--------------------------|--------------------------|
--1----x--1-----0--x-----|-----3--x--1-----1--x--1--|--1--------1--------1-----|
--2----x--2--------x--2--|--0-----x--0-----0--x-----|--0--------0--------0-----|
--3----------3-----------|--2-----------2-----------|--------------------------|
-------------------------|--------------------------|--------------------------|
-------------------------|--------------------------|--4--4--4--4--4--4--4--4--|


  E  E  E  E  E  E  E  E     Q    E  S  S  E  E  Q     
--------------------------|-------0--0h-1p-0----------|
--------------------------|--1----x-----------3--1----|
--3--------3--------3-----|--0----x-------------------|
--3--------3--------3-----|---------------------------|
--1--1--1--1--1--1--1--1--|--3------------------------|
--------------------------|---------------------------|


  Q    E  E  E  E  E  E     Q    E  S  S  E  E  Q       Q    E  E  E  E  E  E   
----------1-----1--1--L--|--0----0--0h-1p-0----------|-------------------------|
--3----x--3-----3--x-----|--1----x-----------3--1----|--3----x--1-----1--1--L--|
--0----x-----------x-----|-------x-------------------|--0----x--0-----0--x-----|
-------------------------|---------------------------|-------------------------|
--3----------3-----------|--3------------------------|--3----------3-----------|
-------------------------|---------------------------|-------------------------|


  Q    E  S  S  E  E  Q       Q    E  E  E  E  E  E   
--0----0--0h-1p-0----------|----------1-----1--1--L--|
--1----x-----------3--1----|--3----x--3-----3--x-----|
-------x-------------------|--0----x-----------x-----|
---------------------------|-------------------------|
--3------------------------|--3----------3-----------|
---------------------------|-------------------------|


  Q    E  S  S  E  E  Q       Q    E  E  E  E  E  E     Q    E  E  E  E  E  E   
--0----0--0h-1p-0----------|-------------------------|----------0-----2--2--2--|
--1----x-----------3--1----|--3----x-----------x--L--|--3----x--3-----3--x--3--|
-------x-------------------|--0----x--3-----3--x--L--|--2----x-----------x-----|
---------------------------|----------2-----2--------|--0----------0-----------|
--3------------------------|--3----------3-----------|-------------------------|
---------------------------|-------------------------|-------------------------|


  Q    E   E  E  E  Q       E  E  E  E  E  E  E  E     E  E  E  E   E  E  Q     
--0----2p--0-------------|--------------------------|--2--------5S--L--7--L----|
--2----x---------3--2----|--3-----x--3-----3--x--3--|-----5--x--5S--L--7--L----|
-------x------------x----|--4--4--x--4-----4--x--4--|--------x-----------------|
--------------------x----|-----4--------------------|--------------------------|
--0-----------0----------|--2-----------2-----------|--------------------------|
-------------------------|--------------------------|--2-----------------------|


  Q    E  E  E  E  E  E     E  E  E  E  E  E  E  E     E  E  E  E  E  E  E  E   
-------------------------|--------------------------|--------------------------|
--3----x--3-----2--0--0--|-----5--x--3-----3--x--3--|--3--0--0--0--3--0--0--0--|
--0----x--0-----0--x--0--|--2-----x--2-----2--x--2--|--0--0--x--0--0--0--x--0--|
-------------------------|--------------------------|--------------------x-----|
-------------------------|--------------------------|--------------------------|
--3----------3-----------|--2-----------2-----------|--3-----------3-----------|


  E  E  E  E  E  E  E  E     Q    E  E  E  E  E  E     Q    E   E  E  E  Q     
--2--0-----------0--0--0--|----------0-----2--2--2--|--0----2p--0-------------|
--2--2--x--3-----2--x--2--|--3----x--3-----3--x--3--|--2----x---------3--2----|
--------x--2--------x-----|--2----x-----------x-----|-------x------------x----|
--------------------------|--0----------0-----------|--------------------x----|
--0-----------0-----------|-------------------------|--0-----------0----------|
--------------------------|-------------------------|-------------------------|


  E  E  E  E  E  E  E  E     E  E  E  E  E  E  E  E     Q    E  E  E  E  E  E   
--------------------------|--2-----------------------|-------------------------|
--3-----x--3-----3--x--3--|-----5--x--3-----2--x--2--|--3----x--3-----2--0--0--|
--4--4--x--4-----4--x--4--|--------x-----------x-----|--0----x--0-----0--x--0--|
-----4--------------------|--------------------------|-------------------------|
--2-----------2-----------|--------------------------|-------------------------|
--------------------------|--2-----------2-----------|--3----------3-----------|


  E  E  E  E  E  E  E  E     E  E  E  E  E  E  E  E   
--------------------------|--------------------------|
-----5--x--3-----3--x--3--|--3--0--0--0--3--0--0--0--|
--2-----x--2-----2--x--2--|--0--0--x--0--0--0--x--0--|
--------------------------|--------------------x-----|
--------------------------|--------------------------|
--2-----------2-----------|--3-----------3-----------|


  E  E  E  E  E  E  E  E     Q    E  E  E  E  E  E     Q    E  E  E  E   E  E   
--2--0-----------0--0--0--|----------------0--0--0--|-------0------------------|
--2--2--x--3-----2--x--2--|--1----x--3-----1--x--1--|--3----x--3-----1p--0--L--|
--------x--2--------x-----|--0----x--0--------x-----|--0----x--------0---x-----|
--------------------------|-------------------------|--------------------------|
--0-----------0-----------|--3----------3-----------|--------------------------|
--------------------------|-------------------------|--3----------3------------|


  Q    E  E  E  E  E  E     E  E  E  E  E  E  E  E     Q    E  E  E  E  E  E   
-------------------------|--0--------3--------------|-------------------------|
--1----x--------1--x--1--|-----3--x--------1--x--1--|--1----x--1-----0--x-----|
--2----x--2-----2--x-----|-----0--x--------0--x-----|--2----x--2--------x--2--|
----------2--------------|--------------------------|--3----------3-----------|
--0----------0-----------|--------------------------|-------------------------|
-------------------------|--0-----------0-----------|-------------------------|


  E  E  E  E  E  E  E  E     E  E  E  E  E  E  E  E   
--------------------------|-----------------------0--|
-----3--x--1-----1--x--1--|--1-----x--1--1-----x-----|
--0-----x--0-----0--x-----|-----2--x--------2--x-----|
--2-----------2-----------|--3-----------3-----------|
--------------------------|--------------------------|
--------------------------|--------------------------|


  E  E  E  E  E  E  E  E     Q    E  E  E  E  E  E     Q    E  E  E  E   E  E   
--0-----------------------|----------------0--0--0--|-------0------------------|
-----3--x--1-----3--x--3--|--1----x--3-----1--x--1--|--3----x--3-----1p--0--L--|
-----0--x--0-----0--x--0--|--0----x--0--------x-----|--0----x--------0---x-----|
--------------------------|-------------------------|--------------------------|
--------------------------|--3----------3-----------|--------------------------|
--3-----------3-----------|-------------------------|--3----------3------------|


  Q    E  E  E  E  E  E     E  E  E  E  E  E  E  E     Q    E  E  E  E  E  E   
-------------------------|--0--------3--------------|-------------------------|
--1----x--------1--x--1--|-----3--x--------1--x--1--|--1----x--1-----0--x-----|
--2----x--2-----2--x-----|-----0--x--------0--x-----|--2----x--2--------x--2--|
----------2--------------|--------------------------|--3----------3-----------|
--0----------0-----------|--------------------------|-------------------------|
-------------------------|--0-----------0-----------|-------------------------|


  E  E  E  E  E  E  E  E     E  E  E  E  E  E  E  E   
--------------------------|-----------------------0--|
-----3--x--1-----1--x--1--|--1-----x--1-----1--x--1--|
--0-----x--0-----0--x-----|-----2--x-----------x-----|
--2-----------2-----------|--3-----------3-----------|
--------------------------|--------------------------|
--------------------------|--------------------------|


  E  E  E  E  E  E  E  E     Q    E  S  S  E  E  Q     
--0-----------------------|-------0--0h-1p-0----------|
-----3--x--1-----3--x--3--|--1----x-----------3--1----|
-----0--x--0-----0--x--0--|--0----x-------------------|
--------------------------|---------------------------|
--------------------------|--3------------------------|
--3-----------3-----------|---------------------------|


  Q    E  E  E  E  E  E     Q    E  S  S  E  E  Q       Q    E  E  E  E  E  E   
----------1-----1--1--L--|--0----0--0h-1p-0----------|-------------------------|
--3----x--3-----3--x-----|--1----x-----------3--1----|--3----x--1-----1--1--L--|
--0----x-----------x-----|-------x-------------------|--0----x--0-----0--x-----|
-------------------------|---------------------------|-------------------------|
--3----------3-----------|--3------------------------|--3----------3-----------|
-------------------------|---------------------------|-------------------------|


  Q    E  S  S  E  E  Q       Q    E  E  E  E  E  E   
--0----0--0h-1p-0----------|----------1-----1--1--L--|
--1----x-----------3--1----|--3----x--3-----3--x-----|
-------x-------------------|--0----x-----------x-----|
---------------------------|-------------------------|
--3------------------------|--3----------3-----------|
---------------------------|-------------------------|


  Q    E  S  S  E  E  Q       Q    E  E  E  E  E  E     Q.     Q.     Q     
--0----0--0h-1p-0----------|-------------------------|----------------0----|
--1----x-----------3--1----|--3----x-----------x--L--|--1------3-----------|
-------x-------------------|--0----x--3-----3--x--3--|---------------------|
---------------------------|----------2-----2-----2--|---------------------|
--3------------------------|--3----------3-----------|---------------------|
---------------------------|-------------------------|---------------------|


                          ^                                      
  E   Q    Q    Q.        W                   W                  
-----------------------|--0----------------|-------------------||
--3h--4----3----1------|--1----------------|-------------------||
-----------------------|--0----------------|-------------------||
-----------------------|--2----------------|-------------------||
-----------------------|--3----------------|-------------------||
-----------------------|-------------------|-------------------||