Ads

Tristram (Diablo) Guitar Tab

Submitted: Mar 04, 2014 by jlefvert

5
Average: 5 (3 votes)
Download | Listen
Game: Diablo
Composer(s): Matt Uelmen
Style: Arrangement, Artificial harmonics, Fingerstyle, Natural harmonics
Series: Diablo

AutoScroll: Slow | Medium | Fast
Tristram
Matt Uelmen 
Diablo 1 & 2 Soundtrack 
Arr: Jonas Lefvert 
 
Part 1 
E|-0-0-0-0-0-0-0-0-0-0-0-0-0-0-------0-0-0-0-0-0-0----0-0-0-----0-0-0-| 
B|-0-0-0-0-0-0-0-0-4-4-4-4-4-4<12>---0-0-0-0-0-0-0------4-4-------0-0-| 
G|-2-2-2-2-2-2-2-2-2-2-2-2-2-2---<14>2-2-2-2-2-2-2------2---------2---| 
D|-2---2---2---2---1---1---1-----------2---2---2--<13>--1---<15>--3---| 
A|-0---------------0--------------0-----------------------------------| 
E|--------------------------------------------------------------------| 
 
E|----0-0-0-0-0-0-0----0-0-0-0-0---------0-0-0-0-0-0-0-0-0----0----0-0-0-| 
B|------0-0-0-0-0-0------5-5-5-5-----------0-0-0-0-0-0-5-5----5----5-5-5-| 
G|------2---2---2--------3---3-------------2---2---2---3------3------3---| 
D|<12>--0---0---0--------0---0-------------0---0---0---0------0------0---| 
A|-----------------<13>--------------<12>--------------------------------| 
E|------------------------------<15>----------------------<12>-<13>------| 
 
E|-0—-0—-0--0----<12>--<12>-0-0-0-0-0-0-<15>-<12>----0-0-0-0-0------<20>-| 
B|-10-10-10-10---<12>--<12>-4-4-4-4-4-4---------<16>-4---4---4-<16>------| 
G|-9—-9—-9--9—<14>--<14>----2---2---2----------------2---2---2-----------| 
D|-9-----9------------------1---1---1----------------2---2---2-----------| 
A|-0------------------------0-----------------0------0---0---0-------0---| 
E|-----------------------------------------------------------------------| 
 
Part 2 (0.39) 
E|-----0---0---0-------0---0---0-------0---0---0-------0---0---0----| 
B|-----0---0---0-------0---0---0-------0---0---0-------0---0---0----| 
G|---2---2---2---2---2---2---2-------3---3---3---3---3---3---3------| 
D|-3---------------3-------------3/4---------------4-------------4\-| 
A|------------------------------------------------------------------| 
E|------------------------------------------------------------------| 
 
E|-----0---0---0-------0---0---0-------0---0---0-------0-------0---| 
B|-----0---0---0-------0---0---0-------0---0---0-------0-------0---| 
G|---2---2---2---2---2---2---2-------3---3---3---3---3---3---3---3-| 
D|-3---------------3-------------3/4---------------4-------4-------| 
A|-------------------------------------------------1-------X-------| 
E|---------------------------------------------------------2-------| 
 
E|-----0---0---0-------0---0---0-------0---0---0-------0-------0---| 
B|-----0---0---0-------0---0---0-------0---0---0-------0-------0---| 
G|---2---2---2---2---2---2---2---2---3---3---3---3---3---3---3---3-| 
D|-3---------------3---------------4---------------4-------4-------| 
A|-X-------------------------------X-------------------------------| 
E|-1-------------------------------2-------------------------------| 
 
E|-----0---0---0-------0---0---0-------0-------0---0---0---0---0-| 
B|-----0---0---0-------0---0---0---------0-------0-0---0---0---0-| 
G|---2---2---2---2---2---2---2---2---3-------3-----3---3---3---3-| 
D|-3---------------3---------------4-------2-------0-------X-----| 
A|---------------------------------------------------------4-----| 
E|---------------------------------------------------------------| 
 
E|-------0---------------0---------------0---------------0---------| 
B|-----3---3-----------3---3-----------3---3-----------3---3-------| 
G|---4-------4---4---4-------4---4---2-------2---2---2-------2---2-| 
D|-------------4---0-----------4---3-----------3---3-----------3---| 
A|-2-------4-----------------------X-------------------------------| 
E|-------------------------2-------1-------------------------------| 
 
E|-------0---------------0---------------0---------------0---------| 
B|-----3---3-----------3---3-----------3---3-----------3---3-------| 
G|---4-------4---4---4-------4---4---2-------2---2---2-------2---2-| 
D|-------------4---0-----------4---3-----------3---3-----------3---| 
A|-2-------4-----------------------X---------------X---------------| 
E|-------------------------2-------1---------------3---------------| 
 
E|-------0---------------0---------------2---------5---------8------------11-| 
B|-----1---1-----------1---1-----------1---------4---------7-----------10----| 
G|---2-------2---2---2-------2---2---2---------5---------8----------11-------| 
D|-------------2-----------2---2---1-------1/4-------4/7-------7/10----------| 
A|-0-------2-------3---------------------------------------------------------| 
E|---------------------------------------------------------------------------| 
 
E|-<12>-<12>-<12>-<12>-<12>-<12>-<12>-<12>-<5>-<5>-<5>-<5>-<5>-<5>-<5>-<5>-| 
B|-<12>-<12>-<12>-<12>-<12>-<12>-<12>-<12>-<5>-<5>-<5>-<5>-<5>-<5>-<5>-<5>-| 
G|-<12>-<12>-<12>-<12>-<12>-<12>-<12>-<12>-<5>-<5>-<5>-<5>-<5>-<5>-<5>-<5>-| 
D|-<12>--------------------------------------------------------------------| 
A|-<12>--------------------------------------------------------------------| 
E|-<12>--------------------------------------------------------------------| 
 
Part 3 (1.28) 
E|-3-3-3-3-3-3-3-3-2-2-2-2-2-------3-3-3-3-3-3-------2-2-2-2-2-------0-0-0-0-0-0-0-| 
B|-1-1-1-1-1-1-1-1-3-3-3-3-3-------1-1-1-1-1-1-------3-3-3-3-3---------0-0-0-0-0-0-| 
G|-0-0-0-0-0-0-0-0-4-4-4-4-4---<16>0-0-0-0-0-0-------4-4-4-4-4<12>-----2---2---2---| 
D|-2---0---0---0---0--------<19>---2----------<19>---0-----------<14>--3---3---3---| 
A|-0-------------------------------0-----------------------------------------------| 
E|---------------------------------------------------------------------------------| 
 
E|-----0-0-0-0-0-0-0----0-0-0-0-0---------------<12>-<12>-<12>-<12>-<12>-<12>-| 
B|-------0-0-0-0-0-0------0-0-0-0---------------<12>-<12>-<12>-<12>-<12>-<12>-| 
G|-------0---0---0--------2---2-----------------<12>-<12>-<12>-<12>-<12>-<12>-| 
D|-------2---2---2--<14>--3---3-----------------------------------------------| 
A|-<14>--3---3---3------------------------------------------------------------| 
E|--------------------------------12/---0-0-0-0-------------------------------| 
                                        P.M 
 
E|-------0-------0-------0-------0-2-2-2-2----<23>--<23>--<23>-| 
B|---0h1-----0h1-----0h1-----0h1---3-3-3-3-<23>--<23>--<23>----| 
G|-2-------2-------2-------2-------4-4-4-4---------------------| 
D|-2-------------------------------0-0-0-0---------------------| 
A|-0-----------------------------------------------------------| 
E|-------------------------------------------------------------| 
 
E|-------0-------0-------0-------0-2-2-2-2-2-2-2-2-0-0-----------------7-8-| 
B|---0h1-----0h1-----0h1-----0h1---3-3-3-3-3-3-3-3-0-0------------8-10-----| 
G|-2-------2-------2-------2-------4-4-4-4-4-4-4-4-0-0--------7-9----------| 
D|-2-------------------------------0-0-0-0-0-0-0-0-7---7-9-10--------------| 
A|-0-----------------------------------------------8-----------------------| 
E|-------------------------------------------------------------------------| 
 
E|-12-12-12-12-15-15-15-15-0-0-0-0-0-0-------| 
B|-0--0--0--0--0--0--0--0--0-0-0-0-0-0-------| 
G|-0-----0-----0-----0-----0-0-0-0-0-0-------| 
D|-X-----------------------7---7---7---------| 
A|-X-----------------------8-----------b2r---| 
E|-0---------------------------------------0-| 
                                           Tune down!
Part 4 (2.21) 
E|-------0---------|   |-----------0-----------0---------| |-------2---------| 
B|---1-----------1-|   |-------0-------0-----------0-----| |---0---0---0---0-| 
G|-2---2---2-2-2---|X2 |---0---------------0-----------0-| |-2-2-2---2---2---|X2 
D|-2---2---2---2---|   |-2---2---2---2---2---2---2---2---| |-0---0---0---0---| 
A|-0---0---0---0---|   |-2---2---2---2---2---2---2---2---| |-2---2---2---2---| 
E|-----------------|   |-0---0---0---0---0---0---0---0---| |-----------------| 
 
E|-1p0-----|  |-1-------|  |-------0---------|  |-----------0-----------0---------| 
B|-----1---|  |---0-----|  |---1-----------1-|  |-------0-------0-----------0-----| 
G|-------2-|X2|-----1---|X2|-2---2---2-2-2---|X2|---0---------------0-----------0-| 
D|---------|  |-------2-|  |-2---2---2---2---|  |-2---2---2---2---2---2---2---2---| 
A|---------|  |---------|  |-0---0---0---0---|  |-2---2---2---2---2---2---2---2---| 
E|-1-------|  |-0-------|  |-----------------|  |-0---0---0---0---0---0---0---0---| 
 
E|---<19>-<19>-<19>-<19>-<19>-<19>-2-------2-------2-------2---------2---2---2---2-| 
B|---<19>-<19>-<19>-<19>-<19>-<19>---2-------2-------2-------2-------2---2---2---2-| 
G|---<19>-<19>-<19>-<19>-<19>-<19>-----3-------3-------3-------3-----3---3---3---3-| 
D|---------------------------------4-----4-------4-------4-------4-4---4---4---4---| 
A|---------------------------------------------------------------------------------| 
E|-<7>-----------------------------------------------------------------------------| 
 
E|---2---2---2---2-------0---------------0---------------0---------------0---------| 
B|---2---2---2---2-----3---3-----------3---3-----------3---3-----------3---3-------| 
G|---3---3---3---3---4-------4---4---4-------4---4---2-------2---2---2-------2---2-| 
D|-4---2-----X---X-------------4---0-----------4---3-----------3---3-----------3---| 
A|---------5---4---2-------4-----------------------X-------------------------------| 
E|-----------------------------------------2-------1-------------------------------| 
 
E|-------0---------------0---------------0---------------0---------| 
B|-----3---3-----------3---3-----------3---3-----------3---3-------| 
G|---4-------4---4---4-------4---4---2-------2---2---2-------2---2-| 
D|-------------4---0-----------4---3-----------3---3-----------3---| 
A|-2-------4-----------------------X---------------X---------------| 
E|---------------------2-----------1---------------3---------------| 
 
E|-------0---------------0---------------2---------5---------8------------11-| 
B|-----1---1-----------1---1-----------1---------4---------7-----------10----| 
G|---2-------2---2---2-------2---2---2---------5---------8----------11-------| 
D|-------------2---------------2---1-------1/4-------4/7-------7/10----------| 
A|---------2-------3-------0-------------------------------------------------| 
E|-0-------------------------------------------------------------------------| 
 
Part 5 (3.06) 
E|-12-----12--------------------12-12-12-----12----------------12-12-12-12-| 
B|-12-----12--------------------12-12-12-----12----------------12-12-12-12-| 
G|-9--9-9-9-9-9-9-9-9-9-9-9-9-9-9--9--9—-9-9-9-9-9-9-9-9-9-9-9-9--9—-9-—9--| 
D|-9—-9-9-9—9-9-9-9-9-9-9-9-9-9-9--9--9—-9-9-9—9-9-9-9-9-9-9-9-9--9--9--9--| 
A|-------------------------------------------------------------------------| 
E|-------------------------------------------------------------------------| 
 
E|-12-----12--------------11-11-11-----11------------------------------------------| 
B|-12-----12--------------12-12-12-----12----13-13-13-12----12---------12-12-12-12-| 
G|-9—-9-9-9-9-9-9-9-9-9-9-9--9--9—-9-9-9-9-9-9-9-9-9--9--9-9-9-9-9-9-9-9--9--9--9--| 
D|-9—-9-9-9—9-9-9-9-9-9-9-9--9--9—-9-9-9—9-9-9-9-9-9--9--9-9-9-9-9-9-9-9--9--9--9--| 
A|---------------------------------------------------------------------------------| 
E|---------------------------------------------------------------------------------| 
 
E|-------------------------------------------------------------------------------| 
B|-12-----12-----12-12-12-11-----11----------------------------------------------| 
G|-11-----11-----11-11-11-11-----11-----12--11-----11----------------11-11-11-11-| 
D|-9—-9-9-9--9-9-9--9--9--9--9-9-9--9-9-9-9-9--9-9-9-9-9-9-9-9-9-9-9-9--9--9--9--| 
A|-------------------------------------------------------------------------------| 
E|-------------------------------------------------------------------------------| 
 
E|-12-----12--------------11-11-11-----11------------------------------------------| 
B|-12-----12--------------12-12-12-----12----13-13-13-12----12---------12-12-12-12-| 
G|-9—-9-9-9-9-9-9-9-9-9-9-9--9--9—-9-9-9-9-9-9-9-9-9--9--9-9-9-9-9-9-9-9--9--9--9--| 
D|-9—-9-9-9—9-9-9-9-9-9-9-9--9--9—-9-9-9—9-9-9-9-9-9--9--9-9-9-9-9-9-9-9--9--9--9--| 
A|-X-------------------------------------------------------------------X--X--X--X--| 
E|-0-------------------------------------------------------------------0--0--0--0--| 
 
E|-----------------------------------------------------------------------------| 
B|-12-----12-----12-12-12-11-----11--------------------------------------------| 
G|-11-----11-----11-11-11-11-----11-----12--11-----11--------------------11-11-| 
D|-9—-9-9-9--9-9-9--9--9--9--9-9-9--9-9-9-9-9--9-9-9-9-9-9-9-9-9-9-9-9-9-9--9--| 
A|-----------------------------------------------------------------------------| 
E|-----------------------------------------------------------------------------| 
 
E|-9--------9--------------10-------10-------------|   |------0-| 
B|-0--------0--------------0--------0--------------|   |-----2--| 
G|-X--------X--------------X--------X--------------|X2 |----3---| 
D|-11-11-11-11-11-11-11-11-12-12-12-12-12-12-12-12-|   |---4----| 
A|-9--9--9—-9—-9—-9—-9--9--9—-9-—9—-9—-9--9—-9--9--|   |--X-----| 
E|-------------------------------------------------|   |-2------| 
 
Part 6 (3.49) 
E|-------------------------3---------------2---------------0-------| 
B|-------0---0-----------0---0-----------0---0-----------0---0-----| 
G|-----2---2---2-------2-------2-------2-------2-------2-------2---|X2 
D|---0-----------0---0-----------0---0-----------0---0-----------0-| 
A|-2---------------2---------------2---------------2---------------| 
E|-----------------------------------------------------------------| 
 
E|-----0-------0-------0-------0-------0---3-------2---------------| 
B|-------0-------0-------0-2-2---2-3-3---3-3-------3-------3-------| 
G|-4-4-------------4-4-----X-X-----0-0---------------------0-------| 
D|-X-X-----4-4-----X-X-----X-X-----0-0-----------------------------| 
A|-2-2-----2-2-----2-2-----2-2-----X-X-----------------------------| 
E|---------------------------------3-3-------3-3-3---3-3-3---0-0-0-| 
 
E|-----0-------0-------0-------5-------3---3-------2-------5-------| 
B|-------0-------0-------0-------3-------3-3-------3-------3-------| 
G|-4-4-------------4-4---------------------0-----------------------| 
D|-X-X-----4-4-----X-X-----X-X-------------0-----------------------| 
A|-2-2-----2-2-----2-2-----2-2-------------X-----------------------| 
E|---------------------------------3-3-----3-3-3-3---3-3-3---3-3-3-| 
 
E|-0-------0-------5-------7-------8-------------------------------| 
B|-0-------0-------5-------5-------X-------6-------5---------------| 
G|-5-------5-------5-------5-------5-----------------------5-------| 
D|-7-7-7-7---7-7-7---7-7-7---7-7-7-7-7-7-7---7-7-7---7-7-7---7-7-7-| 
A|-0-0-0-0---0-0-0---0-0-0---0-0-0-8-8-8-8---8-8-8---8-8-8---8-8-8-| 
E|-----------------------------------------------------------------| 
 
E|---------0-------5-------10------8---------------7---------------| 
B|---------0-------5-------5-------5---------------0---------------| 
G|-5-------5-------5-------5-------5---------------7---------------| 
D|-7-7-7-7---7-7-7---7-7-7---7-7-7-7-7-7-7-7-7-7-7-6-6-6-6-6-6-6-6-| 
A|-0-0-0-0---0-0-0---0-0-0---0-0-0-8-8-8-8-8-8-8-8-7-7-7-7-7-7-7-7-| 
E|-----------------------------------------------------------------| 
 
E|-6-----------------------6-------5----------------------------------3--3—-3--3-| 
B|-6-------6---------------6-------5-------5-------------------------3--3--3—-3--| 
G|---------7-------7-----------------------6-------6-----------4----4—-4--4—-4---| 
D|-----------------8-------------------------------7-------8\--X-----------------| 
A|---8-8-8---8-8-8---8-8-8---8-8-8---7-7-7---7-7-7---7-7-7-X---2---2--2--2—-2----| 
E|---6-6-6---6-6-6---6-6-6---6-6-6---5-5-5---5-5-5---5-5-5-6\--------------------|
Login or Register to remove this ad.

4 comments on Tristram

Dang that was sweet video,

Dang that was sweet video, tab looks solid as well if pretty hard at times.

Thanks so much! It takes some

Thanks so much! It takes some practice to be able to play the song.

Well that was pretty

Well that was pretty impressive. Seems like a nice challenge, it plays different than most of the tabs so I'm looking forward to learning this.

Thank you! Hope it goes well

Thank you! Hope it goes well to learn the song.