Ads

Tristram (Diablo) Guitar Tab

Submitted: Feb 12, 2011 by Bhael (Last updated: Mar 26, 2014)

5
Average: 5 (10 votes)
Download | Listen
Game: Diablo
Composer(s): Matt Uelmen
Style: Alternate picking, Arrangement, Fingerstyle, Natural harmonics
Series: Diablo

Click here for a video example.

AutoScroll: Slow | Medium | Fast
                                   Tristram   
                                    Diablo                                  
                                  Matt Uelmen

Arranged by Harry Murrell

This is my latest arrangement of this excellent piece. I have tried to make it as playable as possible
whilst sustaining the atmosphere of the orignal. The harmonics in bars 104-110 are fairly difficult to
pull off, but can be achieved in multiple ways. If they are too tricky just repeat bars 40-46, perhaps 
playing slightly differently. Enjoy :).



     ^                                          ^                    
     H         H            W                   H         H          
E||----------------------|-------------------|----------------------|
B||--0--------(0)--------|--L----------------|--0--------(0)--------|
G||--2--------(2)--------|--L----------------|--2--------(2)--------|
D||--2--------(2)--------|--L----------------|--1--------(1)--------|
A||--0--------(0)--------|--L----------------|--0--------(0)--------|
E||----------------------|-------------------|----------------------|


              NH                                                   
  H           H           H         H            W                 
-----------------------|--5-------------------|--L----------------|
--L--------<>12--------|----------------------|-------------------|
--L--------------------|--2--------(2)--------|--L----------------|
--L--------------------|--2--------(2)--------|--L----------------|
--L--------------------|--0--------(0)--------|--L----------------|
-----------------------|----------------------|-------------------|


  H         H            W                   H         H          
----------------------|--1----------------|----------------------|
--4-------------------|-------------------|--3-------------------|
--2--------(2)--------|-------------------|--2-------------------|
--1--------(1)--------|-------------------|--0--------(0)--------|
--0--------(0)--------|-------------------|--0--------(0)--------|
----------------------|-------------------|----------------------|


                      ^                                     
  W                   W                   W                 
-------------------|-------------------|-------------------|
--L----------------|-------------------|-------------------|
--L----------------|--3----------------|--0----------------|
--L----------------|--0----------------|-------------------|
--L----------------|--0----------------|-------------------|
-------------------|-------------------|-------------------|


  H         H            W                   W                 
----------------------|-------------------|-------------------|
----------------------|-------------------|-------------------|
--2-------------------|--L----------------|-------------------|
--0--------(0)--------|--L----------------|-------------------|
--0--------(0)--------|--L----------------|--7----------------|
----------------------|-------------------|--0----------------|


  W                   E  E  E  E  E  E     E  E  E  E  E  E   
-------------------|--5--------5--------|--5--------5--------|
-------------------|--------3--------3--|--------3--------3--|
-------------------|-----2--------2-----|-----2--------2-----|
--3----------------|--0-----------------|--------------------|
-------------------|--------------------|--------------------|
-------------------|--------------------|--------------------|


  E  E  E  E  E  E     E  E  E  E  E  E     E  E  E  E  E  E   
--3--------3--------|--3--------3--------|--------------------|
--------3--------3--|--------3--------3--|--4--------4--------|
-----2--------2-----|-----2--------2-----|--------2--------2--|
--0-----------------|--------------------|-----1--------1-----|
--------------------|--------------------|--0-----------------|
--------------------|--------------------|--------------------|


  E  E  E  E  E  E       W                   E  E  E  E  E  E  E  E   
--------------------|---------------------|--1-----------------------|
--4--------4--------|--/13----------------|--------0-----0-----0-----|
--------2--------2--|---------------------|-----2-----2-----2-----2--|
-----1--------1-----|---------------------|--3-----------------------|
--------------------|---------------------|--------------------------|
--------------------|---------------------|--------------------------|


  E  E  E  E  E  E  E  E      E  E  E  E  E  E  E  E   
-----------------------1S--|--2-----------------------|
--------0-----0-----0------|--------0-----0-----0-----|
-----2-----2-----2---------|-----3-----3-----3-----3--|
--3--------------------3S--|--4-----------------------|
---------------------------|--------------------------|
---------------------------|--------------------------|


  E  E  E  E  E  E  E  E      E  E  E  E  E  E  E  E   
-----------------------2S--|--1-----------------------|
--------0-----0-----0------|--------0-----0-----0-----|
-----3-----3-----3---------|-----2-----2-----2-----2--|
--4--------------------4S--|--3-----------------------|
---------------------------|--------------------------|
---------------------------|--------------------------|


  E  E  E  E  E  E  E  E      E  E  E  E  E  E  E  E   
-----------------------1S--|--2-----------------------|
--------0-----0-----0------|--------0-----0-----0-----|
-----2-----2-----2---------|-----3-----3-----3-----3--|
--3--------------------3S--|--4-----------------------|
---------------------------|--------------------------|
---------------------------|--------------------------|


  E  E  E  E  E  E  E  E     E  E  E  E  E  E  E  E   
--------------------------|--------0-----0-----0-----|
--------0-----------0-----|--------0-----0-----0-----|
-----3-----3-----3-----3--|-----2-----2-----2-----2--|
--------------------------|--------------------------|
--1-----------------------|--------------------------|
--------------2-----------|--1-----------------------|


        ^ v ^ ^ v                                        
  E  E  S S S S E  E  E  E      E  E  E  E  E  E  E  E   
--------0-0-0-0-0------------|--------0-----0-----0-----|
--------0-0-0-0-0------------|--------0-----0-----0-----|
--------2-2-2-2-2-----2------|-----3-----3-----3-----3--|
-----3-------------3---------|--------------------------|
-----------------------------|--------------------------|
--1----------------------1S--|--2-----------------------|


        ^ v ^ v v                                        
  E  E  S S S S E  E  E  E      E  E  E  E  E  E  E  E   
--------0-0-0-0-0------------|--------0-----0-----0-----|
--------0-0-0-0-0------------|--------0-----0-----0-----|
--------3-3-3-3-3-----3------|-----2-----2-----2-----2--|
-----4-------------4---------|--------------------------|
-----------------------------|--------------------------|
--2----------------------2S--|--1-----------------------|


                                                         ^                  
  E  E  E  E  E  E  E  E      E  E  E  E  E  E  E  E     H        H         
--------0-----0-----0------|--------0-----------------|--0-----------------|
--------0-----0-----0------|-----------------------0--|--0-----------------|
-----2-----2-----2---------|-----------3--------3-----|--3-----------------|
---------------------------|-----4-----------4--------|--0-----------------|
---------------------------|--------------------------|-----------4--------|
--1--------------------1S--|--2-----------0-----------|--------------------|


  E  E  E  E  E  E  E  E     E  E  E  E  E  E  E  E   
-----------0--------0-----|-----------0-----------0--|
--------3-----3--------3--|--------3-----3-----3-----|
-----4-----------4--------|-----4-----------4--------|
--------------------------|--0-----------4-----------|
--2-----------4-----------|--------------------------|
--------------------------|--------------------------|


  E  E  E  E  E  E  E  E     E  E  E  E  E  E  E  E   
--1--------0--------0-----|--1--------0--------------|
--------3-----3-----3-----|--------3-----3-----3-----|
-----2-----------2-----2--|-----2-----------2-----2--|
--3-----------------------|--3-----------------------|
--------------------------|--------------------------|
--------------------------|--------------------------|


  E  E  E  E  E  E  E  E     E  E  E  E  E  E  E  E   
-----------0--------0-----|-----------0-----------0--|
--------3-----3--------3--|--------3-----3-----3-----|
-----4-----------4--------|-----4-----------4--------|
--------------------------|--0-----------------------|
--2-----------4-----------|--------------------------|
--------------------------|--------------2-----------|


  E  E  E  E  E  E  E  E     E  E  E  E  E  E  E  E   
--1--------0--------0-----|--1--------0--------------|
--------3-----3-----3-----|--------3-----3-----3-----|
-----2-----------2-----2--|-----2-----------2-----2--|
--------------------------|--------------------------|
--------------------------|--------------------------|
--1-----------------------|--3-----------------------|


  E  E  E  E  E  E  E  E     E  E  E  E  E  E  E  E   
-----0-----------------0--|-----0-----------------0--|
-----------1--------1-----|-----------1--------1-----|
--------2--------2--------|--------2--------2--------|
--------------------------|--------------2-----------|
--0-----------2-----------|--3-----------------------|
--------------------------|--------------------------|


  E  E  E  E  E  E  E  E     E  E  E  E   E   E   E   E   
-----------2-----------5--|-----------8--------------11--|
--------1-----------4-----|--------7-------------10------|
-----2-----------5--------|-----8------------11----------|
--1-----------4-----------|--7-----------10--------------|
--------------------------|------------------------------|
--------------------------|------------------------------|


  ^                                           ^                        
  Q    Q     H            W                   Q    Q     Q      Q      
-----------------------|-------------------|--3----3----(3)----(3)----|
--0--------------------|-------------------|--1----1----(1)----(1)----|
--0--------------------|-------------------|--0----0----(0)-----------|
--2--------------------|-------------------|--2-----------------------|
-----------------------|-------------------|--0-----------------------|
--0----0----(0)--------|--L----------------|--------------------------|


                      ^                                                
  W                   Q    Q     Q      Q         Q      H.            
-------------------|--2----2----(2)----(2)----|-----------------------|
--L----------------|--3----3----(3)----(3)----|---L-------------------|
-------------------|--2----2----(2)-----------|--------<>4------------|
-------------------|--0-----------------------|-----------------------|
-------------------|--------------------------|-----------------------|
-------------------|--------------------------|-----------------------|


  ^                                              ^                        
  Q    Q     Q      Q        W                   Q    Q     Q      Q      
--5-----------------------|-------------------|--5-----------------------|
--------------------------|-------------------|--3----3----(3)----(3)----|
--5----5----(5)----(5)----|--L----------------|--2----2----(2)-----------|
--5----5----(5)-----------|-------------------|--0-----------------------|
--0-----------------------|-------------------|--------------------------|
--------------------------|-------------------|--------------------------|


                      ^                                            
  W                   Q    Q     Q      Q        W                 
--3----------------|--0-----------------------|-------------------|
-------------------|--1----1----(1)----(1)----|--L----------------|
-------------------|--2----2----(2)-----------|-------------------|
-------------------|--3-----------------------|-------------------|
-------------------|--------------------------|-------------------|
-------------------|--------------------------|-------------------|


  ^                                              ^                        
  Q    Q     Q      Q        W                   Q    Q     Q      Q      
--------------------------|-------------------|--0-----------------------|
--0-----------------------|-------------------|--1----1----(1)----(1)----|
--0----0----(0)----(0)----|--L----------------|--2----2----(2)-----------|
--2----2----(2)-----------|-------------------|--3-----------------------|
--3-----------------------|-------------------|--------------------------|
--------------------------|-------------------|--------------------------|


                                                              ^       NH    
  H.           E  E      E  Q    E  Q    Q       Q    Q       Q       Q     
----------------------|-----------------------|--0----0--------------------|
--L-------------------|-------------0----0----|--0----0----<>12----<>12----|
----------------------|-------------0----0----|--0----0----<>12------------|
----------------------|-----------------------|------------<>12------------|
----------------------|-----------------------|----------------------------|
------------------7s--|--L--0----0--0---------|--0------------0------------|


  ^                                               ^             NH          
  Q    Q     Q      Q        W                    Q     Q       Q     Q     
--5----5----(5)----(5)----|--L----------------|--10----10------------10----|
--------------------------|-------------------|--12------------------------|
--5----5----(5)-----------|-------------------|--12----------<>12----------|
--5----5----(5)-----------|-------------------|----------------------------|
--0-----------------------|-------------------|---0------------------------|
--------------------------|-------------------|----------------------------|


                      ^                   NH                        
  W                   Q    Q     Q        Q       W                 
--L----------------|--5----5----(5)------------|-------------------|
-------------------|---------------------------|-------------------|
-------------------|--5----5----(5)------------|-------------------|
-------------------|--5----5----(5)----<>19----|--L----------------|
-------------------|--0------------------------|-------------------|
-------------------|---------------------------|-------------------|


   E   E    E   E    E   E   E   E      E   E   Q     Q      Q      
--12-------11-------10-------9-------|--8-------7----(6)----(5)----|
---7---------------------------------|-----------------------------|
---7--(7)------(7)------(7)-----(7)--|-----(7)---------------------|
---0---------------------------------|-----------------------------|
-------------------------------------|-----------------------------|
-------------------------------------|-----------------------------|


  ^         ^                                         ^                     
  Q    Q    E  E  E  E     E  E  E  E  E.  E.  E      Q     E   Q     Q     
--0----0----0-----------|-----------0--1---3---5--|--12----12--12----12----|
--1---------1-----------|--0--1--3----------------|--13--------------------|
--2---------2-----0--2--|-------------------------|--12--------------------|
--3---------3--3--------|-------------------------|--10--------------------|
------------------------|-------------------------|------------------------|
------------------------|-------------------------|------------------------|


                                     ^                                         
     Q       Q       Q       Q       W                   E  E  E  E  E  E  E   
----------------------------------|--0----------------|--0-----------0--------|
------------------<>13----<>13----|--1----------------|-----1-----------1-----|
--<>12----<>12--------------------|--2----------------|--------2-----------2--|
----------------------------------|--3----------------|-----------3-----------|
----------------------------------|-------------------|-----------------------|
----------------------------------|-------------------|-----------------------|


  E   E  H.              W                   E  E  E  E  E  E  E  E   
----------------------|-------------------|-----------0--------------|
----------------------|-------------------|--------1--------1--------|
----------------------|-------------------|-----2--------2--------2--|
----------------------|-------------------|--------------------------|
--3s--2---------------|-------------------|--0-----------------------|
---------0------------|--L----------------|--------------------0-----|


  E  E  E  E  E  E  E   E      E  E  E  E  E  E  E  E   
-----------0----------------|--------------------0-----|
--------1--------1----------|--------0--------0--------|
-----2--------2-------------|-----0--------0--------0--|
-----------------------(2)--|--------------------------|
--0-------------------------|-----------2--------------|
--------------------0-------|--0-----------------------|


  E  E  E  E  E  E  E   E      Q    E  E  E  E  E  E   
----------------------------|-------------------------|
--------0--------0----------|-------0-----------------|
-----0--------0--------(0)--|--4-------2-----------2--|
-----------2----------------|-------------0-----0-----|
----------------------------|--2-------------2--------|
--0-----------------x-------|-------------------------|


  E  E  E  E  E  E  E  E     E   E  E  E  E   E  E  E   
--------------------------|--1p--0--------1p--0--0-----|
--0-----------0-----------|---------0---------------0--|
-----2-----------2--------|------------2---------------|
--------0-----------0-----|--3------------3------------|
-----------2-----------2--|----------------------------|
--------------------------|----------------------------|


  E  E  E  E  E  E  E  E     E  E  E  E  E  E  E  E   
--0--0--------0--0--0-----|-----------0--------------|
--------0--------------0--|--------1--------1--------|
-----------1--------------|-----2--------2--------2--|
--2-----------2-----------|--------------------2-----|
--------------------------|--0-----------------------|
--------------------------|--------------------------|


  E  E  E  E  E  E  E   E      E  E  E  E  E  E  E  E   
-----------0----------------|--------------------0-----|
--------1--------1----------|--------0--------0--------|
-----2--------2--------(0)--|-----0--------0--------0--|
--------------------2-------|--------------------------|
--0-------------------------|-----------2--------------|
----------------------------|--0-----------------------|


                                         ^      NH    
  E  E  E  E  E  E  E   E     H          Q      Q     
--------0--0-----0---------|-----------<>7----<>7----|
--------0--------0---------|-----------<>7----<>7----|
-----0--------0------------|-----------<>7-----------|
---------------------------|-------------------------|
--------------------2p--0--|-------------------------|
--0------------------------|--7----------------------|


    ^       NH      NH                                   
    Q       Q       H           E  E  E  E  E  E  E  E   
--<>7------------------------|--2--2--------2--2--------|
--<>7----<>12----<>12--------|--------2-----------2-----|
--<>7------------------------|-----------3-----------3--|
-----------------------------|--4-----------4-----------|
-----------------------------|--------------------------|
-----------------------------|--------------------------|


  E  E  E  E  E  E  E  E     E  E  E  E  E  E  E  E   
--2--2--------2--2--------|-----2-----2-----2-----2--|
--------2-----------2-----|--------------------------|
-----------3-----------3--|--------------------------|
--4-----------4-----------|--4-----4-----4-----4-----|
--------------------------|--------------------------|
--------------------------|--------------------------|


  E  E  E  E  E  E  E  E       E  E  E  E    E  E  E  E   
-----2-----2--------------|-------------0----------0-----|
-----------------3-----2--|----------3-------3--------3--|
--------------------------|-------4-------------4--------|
--4-----3-----------------|------------------------------|
--------------5-----4-----|--<>2-----------<>4-----------|
--------------------------|------------------------------|


    E  E  E  E    E  E  E  E       E  E  E  E  E  E  E  E   
-------------0-------------0--|----1--------0--------0-----|
----------3-------3-----3-----|----------3-----3-----3-----|
-------4-------------4--------|-------2-----------2-----2--|
--<>0-----------<>4-----------|--<>3-----------------------|
------------------------------|----------------------------|
------------------------------|----------------------------|


  E  E  E  E  E  E  E  E       E  E  E  E    E  E  E  E   
--1--------0--------------|-------------0----------0-----|
--------3-----3-----3-----|----------3-------3--------3--|
-----2-----------2-----2--|-------4-------------4--------|
--------------------------|--<>2-----------<>4-----------|
--------------------------|------------------------------|
--------------------------|------------------------------|


    E  E  E  E    E  E  E  E       E  E  E  E  E  E  E  E   
-------------0-------------0--|----1--------0--------0-----|
----------3-------3-----3-----|----------3-----3-----3-----|
-------4-------------4--------|-------2-----------2-----2--|
--<>0-----------<>4-----------|--<>3-----------------------|
------------------------------|----------------------------|
------------------------------|----------------------------|


  E  E  E  E  E  E  E  E     E  E  E  E  E  E  E  E   
--1--------0--------------|-----0-----------------0--|
--------3-----3-----3-----|-----------1--------1-----|
-----2-----------2-----2--|--------2--------2--------|
--------------------------|--------------------------|
--------------------------|--0-----------2-----------|
--1-----------3-----------|--------------------------|


  E  E  E  E  E  E  E  E     E  E  E  E  E  E  E  E   
-----0-----------------0--|-----------2-----------5--|
-----------1--------1-----|--------1-----------4-----|
--------2--------2--------|-----2-----------5--------|
--------------2-----------|--1-----------4-----------|
--3-----------------------|--------------------------|
--------------------------|--------------------------|


  E  E  E  E   E   E   E   E       E  E  E  E  E  E  E  E   
-----------8--------------11--||---------------------------|
--------7-------------10------||---------------------------|
-----8------------11----------||*--------9--------9--------|
--7-----------10--------------||*-----9--------9--------9--|
------------------------------||---------------------------|
------------------------------||---0--------0--------0-----|


  E  E  E  E  E  E  E  E     E  E  E  E  E  E  E  E   
--------------------------|--------------------------|
--------------------------|--------------------------|
--------9--------9--------|--------9--------9--------|
-----9--------9--------9--|-----9--------9--------9--|
--------------------------|--------------------------|
--0--------0--------0-----|--0--------0--------0-----|


  E  E  E  E  E  E  E  E        E  E  E   E  E  E   E  E   
--------------------------||---12--------12--------12-----|
--------------------------||------------------------------|
--------9--------9--------||*---------9---------9---------|
-----9--------9--------9--||*------9---------9---------9--|
--------------------------||------------------------------|
--0--------0--------0-----||----0---------0---------0-----|


   E   E  E   E  E  E   E  E      E  E  E   E  E  E   E  E   
--11--12-----11---------------|-----------------------------|
-----------------------13-----|--12--------12--------13-----|
----------9---------9---------|---------9---------9---------|
-----------------9---------9--|------9---------9---------9--|
------------------------------|-----------------------------|
---0----------0---------0-----|---0---------0---------0-----|


   E  E  E   E  E  E   E  E     E  E  E  E  E  E  E  E   
-----------------------------|--7--------7--------7-----|
--12--------12--------12-----|--------------------------|
---------9---------9---------|--------------------------|
------9---------9---------9--|--------9--------9--------|
-----------------------------|-----9--------9--------9--|
---0---------0---------0-----|--7--------7--------7-----|


   E  E  E   E  E  E  E  E     E  E  E  E  E  E  E  E   
---------7------------------|--------7--------7--------|
--11--------11--------8-----|--7--------7--------7-----|
----------------------------|--------------------------|
-------------------9--------|--------------------------|
------9---------9--------9--|-----9--------9--------9--|
---7---------7--------7-----|--7--------7--------7-----|


  E  E  E  E  E  E  E  E       E  E  E  E  E  E  E  E   
---------------------------||--2--------2--------2-----|
---------------------------||--2--------2--------2-----|
--------------------------*||-----3--------3--------3--|
--------9--------9--------*||--------4--------4--------|
-----9--------9--------9---||--------------------------|
--7--------7--------7------||--2--------2--------2-----|


  E  E  E  E  E  E  E  E     E  E  E  E  E  E  E  E   
--2--------2--------2-----|--2--------2--------2-----|
--3--------3--------3-----|--2--------2--------2-----|
--------3--------3--------|-----3--------3--------3--|
-----4--------4--------4--|--------4--------4--------|
--------------------------|--------------------------|
--2--------2--------2-----|--2--------2--------2-----|


                             ^                                       
  E  E  E  E  E  E  E  E     W                     W                 
--2--------2--------2-----|--0----------------|----L----------------|
--3--------3--------3-----|--2----------------|----L----------------|
--------3--------3--------|--3----------------|----L----------------|
-----4--------4--------4--|--4----------------|--<>4----------------|
--------------------------|-------------------|---------------------|
--2--------2--------2-----|-------------------|---------------------|


    E  E  E  E  E  E  E  E     E  E  E  E  E  E  E  E   
|---------------------------|--------------3-----------|
|------3-----0-----0--------|-----3-----0-----0--------|
|*--4-----2-----------2-----|--4-----2-----------2-----|
|*--------------0--------0--|-----------------------0--|
|---2-----------------------|--2-----------------------|
|---------------------------|--------------------------|


  E  E  E  E  E  E  E  E     E  E  E  E  E  E  E  E     
--------------2-----------|--------------0------------||
-----------0-----0--------|-----------0-----0-----0---||
--------0-----------0-----|--------0-----------0-----*||
-----0-----------------0--|-----0--------------------*||
--------------------------|---------------------------||
--3-----------------------|--3------------------------||


  E  E  E  E  E  E  E  E     E  E  E  E  E  E  E  E   
--7-----------------------|--7-----------9-----------|
--------------7-----------|--------------------------|
--------------------------|--------------------------|
--------9-----------9-----|--------9-----------9-----|
-----9-----9-----9-----9--|-----9-----9-----9-----9--|
--7-----------------------|--7-----------------------|


    E  E  E  E  E  E  E  E     E  E  E  E  E  E  E  E   
----------------3-----------|--2-----------------------|
--<>3-----------------------|--------------3-----------|
----------0-----------0-----|--------0-----------0-----|
-------0-----0-----0-----0--|-----0-----0-----0-----0--|
----------------------------|--------------------------|
----3-----------------------|--3-----------------------|


  E  E  E  E  E  E  E  E     E  E  E  E   E  E  E  E   
--7-----------------------|--7------------------------|
--------------7-----------|--------------10-----------|
--------------------------|---------------------------|
--------9-----------9-----|--------9------------9-----|
-----9-----9-----9-----9--|-----9-----9------9-----9--|
--7-----------------------|--7------------------------|


  E  E  E  E    E  E  E  E     E  E  E  E  H           E  E  E  E  E  E  E  E   
--3-----------<>3-----------|--2-----------5--------|--5-----------------------|
----------------------------|-----------------------|--5-----------5-----------|
--------0-------------0-----|--------0--------------|--------------------------|
-----0-----0-------0-----0--|-----0-----0-----------|--------7-----------7-----|
----------------------------|-----------------------|-----7-----7-----7-----7--|
--3-------------------------|--3--------------------|--5-----------------------|


  E  E  E  E  E  E  E  E     E  E  E  E  E  E  E  E   
--5-----------7-----------|--0-----------1-----------|
--------------5-----------|--1-----------------------|
--------------------------|--------------------------|
--------7-----------7-----|--------3-----------3-----|
-----7-----7-----7-----7--|-----3-----3-----3-----3--|
--5-----------------------|--1-----------------------|


  E  E  E  E  E  E  E  E     E  E  E  E  E  E  E  E   
--0-----------------------|--5-----------------------|
--------------1-----------|--------------5-----------|
--------------------------|--------------------------|
--------3-----------3-----|--------7-----------7-----|
-----3-----3-----3-----3--|-----7-----7-----7-----7--|
--1-----------------------|--5-----------------------|


  E  E  E  E   E  E  E  E     E  E  E  E  E  E  E  E   
--5-----------10-----------|--------------------------|
---------------------------|--1-----------------------|
---------------------------|-----------2--------------|
--------7------------7-----|--------3-----3-----------|
-----7-----7------7-----7--|-----3-----------3-----3--|
--5------------------------|--1-----------------1-----|


  E  E  E  E  E  E  E  E     E  E  E  E  E  E  E  E   
--------------------------|--6-----------------------|
--0--------0--------------|--------------6-----------|
--------2-----2-----------|--------------------------|
-----4-----------4-----4--|--------8-----------8-----|
--2-----------------2-----|-----8-----8-----8-----8--|
--------------------------|--6-----------------------|


  E  E  E  E  E  E  E  E     E  E  E  E  E  E  E  E     Q    Q    H         
--------------6-----------|--5-----------------------|---------------------|
--------------------------|--------------5-----------|---------------------|
--7-----------------------|--------------------------|--6------------------|
--------8-----------8-----|--------7-----------7-----|------------8--------|
-----8-----8-----8-----8--|-----7-----7-----7-----7--|-------8-------------|
--6-----------------------|--5-----------------------|--6------------------|


  W                   W                  
-------------------|-------------------||
--0----------------|--L----------------||
-------------------|-------------------||
-------------------|-------------------||
--2----------------|--L----------------||
-------------------|-------------------||




Duration Legend
---------------
W - whole
H - half
Q - quarter
E - 8th
S - 16th
T - 32nd
X - 64th
. - note dotted
|-n-|  - n-tuplets


Tablature Legend
----------------
L - tied note
x - dead note
g - grace note
(n) - ghost note
> - accentuded note
NH - natural harmonic
AH - artificial harmonic
TH - tapped harmonic
SH - semi harmonic
PH - pitch harmonic
h - hammer on
p - pull off
b - bend
br - bendRelease
pb - preBend
pbr - preBendRelease
brb - bendReleaseBend
\n/ - tremolo bar dip
\n - tremolo bar dive
-/n - tremolo bar Release up
/n\ - tremolo bar inverted dip
/n - tremolo bar return
-\n - tremolo bar Release down
S - shift slide
s - legato slide
/ -  slide into from below or out of upwards
\ -  slide into from above or out of downwards
~ - vibrato
W - wide vibrato
tr - trill
TP - tremolo picking
T - tapping
S - slap
P - pop
< - fade in
^ - brush up
v - brush down
Login or Register to remove this ad.

11 comments on Tristram

gz great job !

5

gz great job !

Thanks man

Thanks man

you're a genius, I've already

you're a genius, I've already given up being able to play this theme but with this tab I'm pretty confident now ;)

+It sounds awesome. Well done!

What a surprise, I didn't

5

What a surprise, I didn't even remember that song! Excelent choice, this one.
Once again a congratulate you for an awesome arrangement. You did a great job mantaining the dark, depressive tone of this song.
Thanks for sharing!

Thanks for your comment :D

Thanks for your comment :D

Great stuff man, keep up the

Great stuff man, keep up the good work

Will do!

Will do!

This took time. Great work

This took time. Great work

Great job m8 tnx!

Great job m8 tnx!

Where is the second version ?

5

Where is the second version ? :O Just realized that it's gone, wanted to do the strumming part :()

Sorry man, I took it down. If

Sorry man, I took it down. If you want I can send you it via email - I forgot that some sections weren't too bad.