Ads

Devilman no Uta (Devilman) Guitar Tab

Submitted: Sep 02, 2018 by JordanVS (Last updated: Sep 22, 2018)

4
Average: 4 (1 vote)
Download | Listen
Game: Devilman
Style: Arrangement, Fingerstyle, Trill

This song is also called Opening Theme

AutoScroll: Slow | Medium | Fast
Devilman no Uta                                              
Devilman
Opening Theme
Keizo Toda, Vocal Shop
Go Misawa
Yuu Aku
JordanVS

-Capo on 3rd fret
-4/4 ~ Tempo : 125 

The opening from the original show with a hint of the 2018 version.

                                                              |---3--|  |--3--|               
     S S S S S S E     S  S S S S  S S S S  S S S S  S S S    E   E  E  E  E  E  E  E  E  E   
E||-----------------|--6--------6--------6--------6--------|--6------------------8-----6-----|
B||--3-3---6---5-3--|--6-10-8-6---10-8-6---10-8-6---10-8-6-|--6--10--8--6--------8-----6-----|
G||-----------------|--7-----------------L-----------------|--7------------9--7--9-----7-----|
D||--3-3---7---5-3--|--------------------------------------|---------------------------------|
A||--5-5---8---7-5--|--------------------------------------|---------------------------------|
E||-----------------|--6-----------------------------------|--6------------------8-----6-----|


                                        tr                                         
  E  E  E  Q.     E  E     Q    S S S S Q       E  E     Q    E  E  S S S S E  E   
--5------------------L--|---------------1(2)----1--0--|---------------------------|
---------------------6--|--L--------2-3---------------|--3-------3--1---1---1--1--|
-----------6------6-----|-------2-4----------------2--|--2-------2--0---0---0--0--|
--7-----7---------5--7--|--L--------------------------|--0----0--3----2---2----2--|
--0---------------------|--L-----------------------0--|-------------3-------3-----|
------------------------|--L--------------------------|---------------------------|


  E  E  S E  S E  E  Q       Q    E  E  S S S S E  E     E  E  S E  S E  E  Q     
--------------------------|--1------------------------|--------------------------|
--------------------------|--3-------3--1---1---1--1--|--------------------------|
-----3--3-3--3-2--2-------|--2-------2--0---0---0--0--|-----3--3-3--3-2--2-------|
-----3--3-3--3-2--2-------|--0----0-------2---2----2--|-----3--3-3--3-2--2-------|
--1-----1------0-----0----|-------------3-------3-----|--1-----1------0----------|
--------------------------|---------------------------|--------------------------|


  E  E  E.  S E  E  E  S S    E  S S E  S S E  E  E  E     E  E  E.  S E  E  E  S S  
------------1-0------------|----------------------------|------------5-3--0-------3-|
-----3--3--------1-------5-|--3-----------3-2-----------|-----3--3------------------|
--2-----------------0------|-----3-------------2--------|--2-----------------0------|
--0-----------------2------|---------3------------2-----|--0-----------------2------|
--------------------3------|---------5------------4-----|--------------------3------|
---------------------------|---------6------------5-----|---------------------------|


  E  E   S  S S S E  E  E.  S    E  E  E  S S S S E  Q       S S S S S S S S S S S S S S S S  
--1------5--------L--3--1---0-|-----------0-1---0----5----|--5---5---5---5---5---5-5---5-5---|
-----3------------------------|--3-----3----------3--5----|--5---5---5---5---5---5-5---5-5---|
----------------0-2-----------|-----2-------2-------------|--6---6---6---6---6---6-6---6-6---|
--------(0)-2-3---------------|--0-----0------0------0----|----------------------------------|
---------1--------0-----------|---------------------------|--0---0---0---0---0---0-0---0-0---|
------------------------------|---------------------------|----------------------------------|


    E  E  E  S S S S Q    E     Q    E.  S E  S S S S S S    E  E  E  S S S S Q    E   
|--------------0-1-0---------|--0-------------------------|-------------0-1-3-5----5--|
|------3--3------3-L-3----3--|--1----1-----3--3-1-----3---|-----3--3------3---L-------|
|*--2------------2---L-------|--2----L---2----2-2---2-2---|--2------------2---L-------|
|*--0------------0--------0--|-------------0--------3-----|--0--------0---0--------0--|
|------------0---------------|--0-------------------------|---------------------------|
|----------------------------|----------------------------|---------------------------|


  E  S S E  E  E  S S S S S S    S S S S E  S S E  S S E  E     S S S S E  S S S S S S S S E   
--3--3-3----3--5----L-------5-|--6-6-6-6-3----6-5--5-1-5-----|--3-3-3-3-0----3-1-1-1-0--------|
--3----L-6-----5----L-5-6-8---|--3-------L------1------L-----|--0-------L--------------3------|
--3------L-----5--5-7---------|--3-------L------2------L-----|--0-------L---------------------|
------------------------------|------------------------------|---------------------0-2-3-2-0--|
---------------0--------------|------------------------------|--------------------------------|
--3---------------------------|--3--------------1------------|--0-----------------------------|


                                                           ^                                 
  S S E  E  S S S S S S E  E     S S S E.  S S S S S S E   E       Q    E   E   E  E  E.  S  
--6-6-6--8--6-6-5-3---3-5-----|--3-3-3-3-----3-5-5-5-6-5-------|--10-------10---8--6--5---6-|
--------------------6---------|------------6---5-5-5-5-5--(5)--|--10------------------------|
--7-------------5-------------|--4------------------------(6)--|--10-------10--10-----------|
--5-------------3-------------|--2------------------------(7)--|---0----0---0---0--0--L-----|
------------------------------|----------------0-----0-0-------|----------------------------|
------------------------------|--------------------------------|----------------------------|


  E  E  E.  S S S E  Q       Q    E  S S S Q    S E     E  E  S E  Q.     S E.   
--3-----------------------|--0-----------0--------4--|--5-----------------------|
--3------------------6----|--0-----------0-----------|--2-----------------------|
--3-----------------------|-------1--1-1---1---------|--2-----------------2-----|
-----5--5---5-5-5-5-------|-------2--2-2---2---------|-----2--2-2--2------------|
-----5--5---5-5-5-5-------|--------------------------|-----0--0-0--0------------|
--3---------------L-------|--0-----------------------|--------------------------|


                                                                              |--3--|   
  E  E  E  E  E  E  E  S S    E  E   E.  S E  E   E  S S    E  E.  S E  E  E  E  E  E   
-----------------1--0------|--6---------------6----------|--5--5---5-5--5-----8--6--5--|
--3--3--------3----------3-|--6------------------10----8-|--5--5---5-5--5--------------|
--------2------------------|---------------7-------------|--7--7---7-7--6--------------|
--0-----0-----3------------|-----8-----------------------|-----------------------------|
---------------------------|--------10---8---------------|--0-----------0--------------|
---------------------------|--6--------------------------|-----------------------------|

1.
                  tr                                                                  
   E  S S E  E    Q.          E     S E  E  S E  E  E  E  E     E  E  E  E  H         
--10-----------------------------|-------1--0-------0--------|-----------------------|
--10------------(10)(11)---------|----3--3--L-3--1--L--3--1--|-----1-----------------|
--10------------(10)-------------|--2----2--L----0--L--------|--3--L--3--2-----------|
---0--0-0----0-------------------|--0------------2--L--------|--3--L-----2-----------|
----------0-------0--------------|---------------3-----------|--1--------0-----------|
---------------------------------|---------------------------|-----------------------|

                                                                   2.
  S S E  E  S S Q    S E  E     S S S S S S S S S S S S S S S S       E  E  E   E  E  E  S  S E   
---------1--0--------3-1--3--|--5---5---5---5---5---5-5---5-5----||--10--------------------------|
------3--3--L-3--------------|--5---5---5---5---5---5-5---5-5----||--10--------------------------|
----2----2--L----------------|--6---6---6---6---6---6-6---6-6---*||--10--------------------------|
--0-------------0------------|----------------------------------*||---0--0---------7--5--3p-0----|
-----------------------------|--0---0---0---0---0---0-0---0-0----||---------8--10-------------0--|
-----------------------------|-----------------------------------||------------------------------|


                                                                      |---3--|  |--3--|               
  E  E  E  E  E  E  S  S E     S  S S S S  S S S S  S S S S  S S S    E   E  E  E  E  E  E  E  E  E   
----------------------------|--6--------6--------6--------6--------|--6------------------8-----6-----|
----------------------------|--6-10-8-6---10-8-6---10-8-6---10-8-6-|--6--10--8--6--------8-----6-----|
----------------------------|--7-----------------L-----------------|--7------------9--7--9-----7-----|
--0--0--3--5--7--5--3p-0----|--------------------------------------|---------------------------------|
-------------------------0--|--------------------------------------|---------------------------------|
----------------------------|--6-----------------------------------|--6------------------8-----6-----|


                                        tr                                      
  E  E  E  Q.     E  E     Q    S S S S Q       E   E      Q    Q    H          
--5------------------L--|--------------------------12--|--10------------------||
---------------------6--|--L------------6(7)----6--10--|--10------------------||
-----------6------6-----|-----------6-7----------------|--10------------------||
--7-----7---------5--7--|--L----7-9--------------------|---0------------------||
--0---------------------|--L------------------------0--|----------------------||
------------------------|--L---------------------------|----------------------||




Duration Legend
---------------
W - whole
H - half
Q - quarter
E - 8th
S - 16th
T - 32nd
X - 64th
. - note dotted
|-n-|  - n-tuplets


Tablature Legend
----------------
L - tied note
x - dead note
g - grace note
tr- trill
h - hammer on
p - pull off
~ - vibrato
W - wide vibrato
^ - brush up
v - brush down
Login or Register to remove this ad.