Ads

Out of Darkness (Lemonade Serenade Version) (Devil May Cry 4) Guitar Tab

Submitted: Aug 19, 2016 by Coolbreeze

5
Average: 5 (6 votes)
Download | Listen
Game: Devil May Cry 4
Composer(s): Shusaku Uchiyama, Tetsuya Shibata, Akihiko Narita, Rei Kondoh, Kota Suzuki, Chamy.Ishi
Style: Arrangement, Fingerstyle, Natural harmonics, Transcription

AutoScroll: Slow | Medium | Fast
				 Out of Darkness
				~Devil May Cry 4~

Music by Tetsuya Shibata
Arranged and Performed by Lemonade Serenade
Tabbed by Coolbreeze
Tempo = 110


      Q    Q    Q       Q    Q    Q       Q    Q    Q       Q    Q    Q     
D#||-----------------|--0----2----4----|--2--------------|--2----4----5----|
A#||------------0----|-----------------|--1---------1----|-----------------|
F#||-------1---------|-----------------|--2----2---------|-----------------|
C#||--2--------------|-----------------|-----------------|-----------------|
G#||-----------------|-----------------|-----------------|-----------------|
D#||--0--------------|-----------------|--0--------------|-----------------|


                                      ^                                 
  Q    Q    Q       Q    Q    Q       Q    Q    Q       Q    Q    Q     
--4---------0----|--0---------0----|--2----4----0----|-----------------|
-------4---------|-------4---------|--2--------------|--4----2---------|
-----------------|-----------------|--2--------------|------------4----|
-----------------|-----------------|-----------------|-----------------|
-----------------|--4---------4----|--0---------0----|--2--------------|
--0---------0----|-----------------|-----------------|-----------------|


                    ^                                   ^               
  Q    Q    Q       Q    Q    Q       Q    Q    Q       Q    Q    Q     
--0---------0----|------------0----|-----------------|--2----0---------|
-------4---------|--2----4---------|--4----3----4----|-----------------|
-----------------|--2--------------|-----------------|-----------------|
-----------------|-----------------|-----------------|-----------------|
--4---------4----|--0--------------|--2---------2----|-----------------|
-----------------|-----------------|-----------------|--4---------4----|


  ^                 ^                                   ^               
  Q    Q    Q       Q    Q    Q       Q    Q    Q       Q    Q    Q     
--0----2----4----|--4----2----0----|-----------------|--0--------------|
--2--------------|--2--------------|--4----2----4----|--0---------0----|
-----------------|-----------------|--2---------4----|--1----2---------|
-----------------|-----------------|-----------------|-----------------|
--4--------------|--0---------0----|--2---------2----|-----------------|
-----------------|-----------------|-----------------|--0--------------|


                    ^                                 ^               
  Q    Q    Q       Q    Q    Q       H.              Q    Q    Q     
-----------------|-----------------|---------------|--0--------------|
--1----0---------|------------0----|--1------------|--0---------0----|
------------2----|--1----2---------|--2------------|--1----1---------|
-----------------|--2--------------|---------------|-----------------|
-----------------|--2--------------|---------------|-----------------|
-----------------|--0--------------|--0------------|--0--------------|


                      ^                                                  
  Q    Q    E   E     Q    Q    Q       H        Q       Q    Q    Q     
--4---------2p--0--|--2--------------|--5--------3----|--4---------0----|
-------------------|--1---------1----|----------------|-------4---------|
-------1-----------|--2----2---------|----------------|-----------------|
-------------------|-----------------|----------------|-----------------|
-------------------|-----------------|----------------|-----------------|
-------------------|--0--------------|----------------|--0---------0----|


                    ^                                                  
  Q    Q    Q       Q    Q    Q       Q    Q    Q       H        Q     
--0---------0----|--2----4----0----|-----------------|--0-------------|
-------4---------|--2--------------|--4----2---------|-----------0----|
-----------------|--2--------------|------------4----|----------------|
-----------------|-----------------|-----------------|----------------|
--4---------4----|--0---------0----|--2--------------|--4-------------|
-----------------|-----------------|-----------------|----------------|


                                       ^                                
  H        E   E     Q    Q    Q       H        Q       Q    Q    Q     
--7--------5s--4--|--2---------2----|--5-------------|--0----2----4----|
------------------|------------0----|--4-------------|-----------------|
------------------|-------2---------|----------------|-----------------|
------------------|-----------------|----------------|-----------------|
--0---------------|--2--------------|--3-------------|--4---------4----|
------------------|-----------------|-----------4----|-----------------|


  ^                           ^       ^                                 
  Q    Q    Q       Q    Q    Q       Q    Q    Q       Q    Q    Q     
-------2----0----|-----------------|--0--------------|--0--------------|
--2--------------|--4----2----4----|--0---------0----|-------0---------|
--2--------------|------------4----|--1----1---------|------------1----|
-----------------|------------2----|-----------------|-----------------|
--0---------0----|--2--------------|-----------------|-----------------|
-----------------|------------0----|--0--------------|-----------------|


                                      ^                                   
  Q    Q    Q       Q    Q    Q       Q    Q    Q       Q    Q    E   E   
------------0----|-------2----0----|--0--------------|--4---------2p--0--|
-------1---------|--1--------------|--0---------0----|-------------------|
--2--------------|-----------------|--1----1---------|-------1-----------|
--2--------------|-----------------|-----------------|-------------------|
--0--------------|-----------------|-----------------|-------------------|
-----------------|-----------------|--0--------------|-------------------|


  ^                                                                    
  Q    Q    Q       H        Q       Q    Q    Q       Q    Q    Q     
--2--------------|--5--------3----|--4----4----0----|--0---------0----|
--1---------1----|----------------|------------0----|--0----4----0----|
--2----2---------|----------------|-----------------|-----------------|
-----------------|----------------|-----------------|-----------------|
-----------------|----------------|-----------------|--4---------4----|
--0--------------|----------------|--0--------------|-----------------|


  ^                                                                        
  Q    Q    Q       E   E  Q    Q       Q    Q    Q       H        E   E   
--2----4----0----|-------------------|--0--------------|--7--------5s--4--|
--2--------------|--4p--2------------|-------0----0----|------------------|
--2--------------|--2------4---------|-----------------|------------------|
-----------------|-------------------|-----------------|------------------|
--0---------0----|--2-----------3----|--4--------------|--0---------------|
-----------------|-------------------|-----------------|------------------|


                    ^                                                  
  Q    Q    Q       H        Q       Q    Q    Q       Q    Q    Q     
--2---------2----|--5-------------|--4---------0----|--0---------0----|
------------0----|--4-------------|-----------------|-------4---------|
-------2---------|----------------|-------1---------|-----------------|
-----------------|----------------|-----------------|-----------------|
--2--------------|--3-------------|--4--------------|--0---------0----|
-----------------|-----------4----|-----------------|-----------------|


  ^                 ^                                                   
  Q    Q    Q       Q    Q    Q       Q    Q    Q       Q    Q    Q     
-------2----2----|--0--------------|--0--------------|------------2----|
--2----2----2----|--0---------0----|-------0---------|-------1---------|
--2--------------|--1----1---------|------------1----|--2--------------|
--4--------------|-----------------|-----------------|--2--------------|
--2---------2----|-----------------|-----------------|-----------------|
-----------------|--0--------------|-----------------|--0--------------|


                    ^                                                   
  Q    Q    Q       Q    Q    Q       Q    Q    Q       Q    Q    Q     
--0--------------|-----------------|--0--------------|------------2----|
-------0---------|------------0----|-------0---------|-------1---------|
------------1----|-------1---------|------------1----|--2--------------|
-----------------|--2--------------|-----------------|--2--------------|
-----------------|--2--------------|-----------------|-----------------|
--0--------------|--0--------------|-----------------|--0--------------|


  ^                 ^                  ^                                     
  Q    Q    Q       Q    E  E  Q       H        E   E     E  E  E  E  Q      
--0---------0----|--0----------0----|--4--------2p--0--|--------------------|
--0----0---------|--0-------4-------|--2---------------|--4--------2--4s----|
--1--------------|--1----1----------|--2---------------|--------2-----------|
-----------------|--2---------------|--2---------------|-----4--------------|
-----------------|--4---------------|--0---------------|--2-----------2-----|
--0--------------|------------------|------------------|--------------------|


  ^                ^                 ^                                 
  Q    H           Q    Q    Q       Q    Q    Q       Q    Q    Q     
----------------|------------0----|-------0----7----|--7--------------|
--7----5--------|--2----4---------|--0--------------|------------7----|
----------------|--2----4---------|--1--------------|-------9---------|
--7----6--------|--2--------------|-----------------|-----------------|
----------------|--0--------------|-----------------|--9--------------|
--0----0--------|-----------------|--4--------------|-----------------|


  ^                                                             
  E  E  E  E  Q       E  E  E  E  E  E     Q.     T  T  S Q     
-------------------|--------0--------0--|--4------4s-3p-2------|
--5--------5--4----|--------------4-----|----------------------|
--------2----------|-----2-----2--------|----------------------|
-----4-------------|--------------------|----------------------|
--2----------------|--4-----------4-----|--0-------------------|
--------------4----|--------------------|----------------------|


                     ^                ^                                  
  Q.     E  Q        Q    H           Q    Q    Q        Q    Q    Q     
------------------|----------------|-------0----4s----|--7----9---------|
--4------2--4s----|--7----5--------|--2---------------|------------9----|
------------------|----------------|--2---------------|-----------------|
------------------|--7----6--------|--2---------------|-----------------|
--2---------2-----|----------------|--0---------------|-----------------|
------------------|--0-------------|------------------|--4---------0----|


   ^                    ^                                        
   Q     E  E   Q       Q    E  E  E  E     E  S  S  E  E  Q     
---------------------|--4-------------4--|--5--4h-5p-4----------|
--10-----------------|--4----------4-----|--------------7--5----|
---9--------9---9----|--5-------5--------|----------------------|
--11----11-----11----|-------6-----------|----------------------|
---9------------9----|-------------------|----------------------|
---------------------|--4----------------|-----4----------------|


                                      ^                                   
  E  E  Q     Q       H.              Q    Q    Q       Q    Q    E   E   
-------------------|---------------|--0--------------|--4---------2p--0--|
--4----------------|---------------|--0---------0----|-------------------|
-----6--5s----2----|--1------------|--1----1---------|-------1-----------|
-------------------|---------------|-----------------|-------------------|
-------------------|---------------|-----------------|-------------------|
--4----------------|---------------|--0--------------|-------------------|


  ^                                                                    
  Q    Q    Q       H        Q       Q    Q    Q       Q    Q    Q     
--2--------------|--5--------3----|--4---------0----|--0---------0----|
--1---------1----|----------------|-------4---------|-------4---------|
--2----2---------|----------------|-----------------|-----------------|
-----------------|----------------|-----------------|-----------------|
-----------------|----------------|-----------------|--4---------4----|
--0--------------|----------------|--0---------0----|-----------------|


  ^                                                                     
  Q    Q    Q       Q    Q    Q       H        Q       H        E   E   
--2----4----0----|-----------------|--0-------------|--7--------5s--4--|
--2--------------|--4----2---------|-----------0----|------------------|
--2--------------|------------4----|----------------|------------------|
-----------------|-----------------|----------------|------------------|
--0---------0----|--2--------------|--4-------------|--0---------------|
-----------------|-----------------|----------------|------------------|


                    ^               ^                 ^                
  Q    Q    Q       H.              Q    Q    Q       Q    Q     Q     
--2---------2----|--5------------|--0----2----4----|--5----7-----9----|
------------0----|--4------------|--2--------------|-------9----10----|
-------2---------|---------------|-----------------|------------------|
-----------------|---------------|-----------------|------------------|
--2--------------|--3------------|--4---------4----|--0---------------|
-----------------|---------------|-----------------|------------------|


  ^                     NH                                                 
  Q    E  E  Q          H        Q       Q    Q    Q       Q    Q    Q     
--7-------7--7----|--<>12-------------|--0--------------|------------2----|
--7-------7--7----|--<>12--------0----|-------0---------|-------1---------|
--8----8----------|--<>12-------------|------------1----|--2--------------|
------------------|-------------------|-----------------|--2--------------|
------------------|-------------------|-----------------|-----------------|
--7----------7----|-----0-------------|-----------------|--0--------------|


  ^            NH         NH                                                  
  Q    Q       Q          Q    Q    Q       Q    Q    Q       Q    Q    Q     
--0---------<>12----|--<>12--------------|--0--------------|------------2----|
--0----0----<>12----|--<>12---------0----|-------0---------|-------1---------|
--1-----------------|--<>12----1---------|------------1----|--2--------------|
--------------------|--------------------|-----------------|--2--------------|
--------------------|--------------------|-----------------|-----------------|
--0-----------------|-----0--------------|-----------------|--0--------------|


  ^                  NH         NH        NH             
  Q.     Q.          H          Q         H.             
--0-------------|--<>5--------<>5----|--<>L------------||
--0------0------|--<>5--------<>5----|--<>L------------||
--1-------------|-------------<>5----|--<>L------------||
----------------|--------------------|-----------------||
----------------|--------------------|-----------------||
--0-------------|---------------0----|----L------------||
Login or Register to remove this ad.