Ads

UNATCO (Deus Ex) Guitar Tab

Submitted: Mar 26, 2016 by meridian

5
Average: 5 (5 votes)
Download | Listen
Game: Deus Ex
Composer(s): Alexander Brandon, Dan Gardopée, Michiel van den Bos, Reeves Gabrels
Style: Arrangement, Fingerstyle

AutoScroll: Slow | Medium | Fast
                                    UNATCO - Main Theme


Composer: Alexander Brandon
Game: Deus Ex (2000)
Arranger: Meridian
Difficulty: Medium (Hard, if playing all 3-4 voices precisely)
March 2016
Note: Original melody ends at FINE

After years of lurking, it's my pleasure to present my first tab. 
This arrangement is dedicated to tabbers such as TrangOul, Kabukibear, diralark, kkrieger, Stamen47,
especially scarecrowlol, and everyone else not named here whose tabs have helped me level up from fresh guitar spawn to 
"not horribly bad". Please enjoy.     
                               

Guitar (Capo 1) 
     Q    E  Q    E  Q       Q    Q    E  Q    E     Q    E  Q    E  Q     
E||-----------------------|-----------------------|-----------------------|
B||-----------------------|-----------------------|-----------------------|
G||-----------------------|--2----2--0----0--0-2--|--0--2-----------------|
D||-----------------------|-----------------------|-----------------------|
A||--0----0--0----0--0----|--0--------------------|--0----0--0----0--0----|
E||-----------------------|-------3----3--3----3--|-----------------------|

 
  Q    Q    E  Q    E     Q    E  Q    E  Q       Q    Q    E  Q    E   
-----------------------|-----------------------|-----------------------|
-----------------------|-----------------------|-----------------------|
--2----2--0----0--0-2--|--0--2-----------------|--2----2--0----0--0-2--|
-----------------------|-----------------------|-----------------------|
--0--------------------|--0----0--0----0--0----|--0---------0----------|
-------3----3--3----3--|-----------------------|-------3-------3----3--|

                   
  Q    E  Q    E  Q       Q    Q    E  Q    E        E  E  E  E  E  E  E  E   
-----------------------|------------------------||---5--0-----------------0--|
-----------------------|------------------------||---------1--0--1--0--1-----|
--0--2-----------------|----------0----0-------*||*--------------------------|
-----------------------|--3----3----------0-2--*||*-->-----------------------|
-----------------------|------------------------||---0-----0--0-----0--0-----|
--1----1--1----1--1----|--1----1----1--3----3---||---------------------------|


  E  E  E  E  E  E  E  E     E  E  E  E  E  E  E  E   
--5--0-----------------0--|--5--0-----------------0--|
--------1--0--1--0--1-----|--------1--0--1--0--1-----|
--2--------0--------0--2--|--0--2--------------------|
--------0--------0--------|--------------------------|
--0-----------------------|--0-----0--0-----0--0-----|
--------3-----3--3-----3--|--------------------------|


  E  E  E  E  E  E  E  E     E  E  E  E  E  E  E  E   
--5--0-----------------0--|--5--0-----------------0--|
--------1--0--1--0--1-----|--------1--0--1--0--1-----|
--2--------0--------0--2--|--0--2--------------------|
--------0--------0--------|--------------------------|
--0-----------------------|--0-----0--0-----0--0-----|
--------3-----3--3-----3--|--------------------------|

                                                  
  E  E  E  E  E  E  E  E     E  E  E  E  E  E  E  E   
--5--0-----------------0--|--5--0-----------------0--|
--------1--0--1--0--1-----|--------1--0--1--0--1-----|
--2--------0--------0--2--|--0--2--------------------|
--------0--------0--------|->3---------------->0-----|
--0-----------------------|--------------------------|
--------3-----3--3-----3--|-(1)---(1)(1)---(1)(1)----|

 
  E  E  E  E  E  E  E  E        E  E  E  E  E  E  E  E   
--5--0-----------------0---||---5--0-----------------0--|
--------1--0--1--0--1------||---------1--0--1--0--1-----|
------->0--0-----0--------*||*--------------------------|
--3-----3-----------0--2--*||*--------------------------|
------------------->3------||-->0-----0--0-----0--0-----|
-(1)---(1)---(1)(3)---(3)--||---------------------------|

   
  E  E  E  E  E  E  E  E     E  E  E  E  E  E  E  E   
--5--0-----------------0--|--5--0-----------------0--|
--------1--0--1--0--1-----|--------1--0--1--0--1-----|
--2--------0--------0--2--|--0--2--------------------|
--------0--------0--------|--------------------------|
--0-----------------------|--0-----0--0-----0--0-----|
--------3-----3--3-----3--|--------------------------|

 
  E  E  E  E  E  E  E  E     E  E  E  E  E  E  E  E   
--5--0-----------------0--|--5--0-----------------0--|
--------1--0--1--0--1-----|--------1--0--1--0--1-----|
--2--------0--------0--2--|--0--2--------------------|
--------0--------0--------|-<7>----------------------|
--0-----------------------|--0-----0--0-----0--0-----|
--------3-----3--3-----3--|--------------------------|

 
  E  E  E  E  E  E  E  E     E  E  E  E  E  E  E  E   
--5--0-----------------0--|--5--0-----------------0--|
--------1--0--1--0--1-----|--------1--0--1--0--1-----|
--2--------0--------0--2--|--0--2--------------------|
(<7>)---0--------0--------|(<7>)-------->3-----------|
--0-----------------------|--------------------------|
--------3-----3--3-----3--|--1-----1--1-----1--1-----|


  E  E  E  E  E  E  E  E       Q    E  Q    E  Q       Q    E  Q    E  E  E   
--5--0-----------------0---||--8~-------------------|--7~--------------------|
--------1--0--1--0--1------||-----------------------|------------------------|
-----------0-----0--------*||-----------------------|------------------------|
--3-----3----------->-->--*||-->--------------------|------------------------|
--------------------3--2---||--0----0--0----0--0----|-------0--2----------0--|
--1-----1-----1--3-----3---||-----------------------|--8------------3--3-----|

   
  Q    E  Q    E  Q       Q    E  Q    E  E  E     Q    E  Q    E  Q     
--5~-------------------|------------------------|-----------------------|
-----------------------|------------------------|-----------------------|
-----------------------|------------------------|-----------------------|
-----------------------|------------------------|-----------------------|
--0----0--0----0--0----|--3----0--2----------0--|--0----0--0----0--0----|
-----------------------|---------------3--3-----|-----------------------|

 
  Q    Q    E  Q    E     Q    E  Q    E  Q       Q    Q    E  Q    E   
-----------------------|-----------------------|-----------------------|
-----------------------|-----------------------|-----------------------|
--2-------0-------0-2--|--0--2-----------------|------>0-------0-------|
-------0-------0-------|->3-------------->0----|--3----3----------0-2--|
--0---------0----------|-----------------------|----------------->3----|
-------3-------3----3--|--1----1--1----1--1----|--1----1----1--3----3--|

   
  Q    E  Q    E  Q       Q    E  Q    E  E  E     Q    E  Q    E  Q     
--0--------------------|--5---------------------|--7--------------------|
-----------------------|--5---------------------|--3--------------------|
-----------------------|--2-------0-------0--2--|--0--2-----------------|
-----------------------|-------0-------0--------|-----------------------|
->0----0--0----0--0----|--3----0--2----------0--|--0----0--0----0--0----|
-----------------------|---------------3--3-----|-----------------------|

  
  Q    E  Q    E  E  E     Q    E  Q    E  Q       Q    Q    E  Q    E   
--5---------------------|-----------------------|-----------------------|
------------------------|-----------------------|-----------------------|
--5-------0-------0--2--|--0--2-----------------|--2-------0-------0-2--|
-------0-------0--------|-----------------------|-------0-------0-------|
--3----0--2----------0--|--0----0--0----0--0----|--0---------0----------|
---------------3--3-----|-----------------------|-------3-------3----3--|

   
  Q    E  Q    E  Q       Q    Q    E  Q    E     Q    E  Q    E  Q     
-----------------------|----------------------F|--5--------------------|
-----------------------|----------------------I|-----------------------|
--0--2-----------------|-------0-------0------N|--2----2--0-------0--2-|
--3---------------0----|--3----3----------0-2-E|---------------0-------|
-----------------------|------------------3----|--0----0--0----0--0----|
--1----1--1----1--1----|--1----1----1--3----3--|-----------------------|

  
  Q    E  Q    E  Q       Q    E  Q    E  Q       Q    Q    E  Q    E   
-----------------------|-----------------------|-----------------------|
--3--------------------|--1--------------------|--1---------3----------|
--0--2-----------------|--2----2--0-------0--2-|--4--2------0----------|
-----------------------|-------0-------0-------|-----------------------|
--0----0--0----0--0----|-----------------------|-----------------------|
-----------------------|--1----1--1----1--1----|--3----3----3--3----3--|

                    
  Q    E  S  S E  E  E  E     Q    E  S S E  E  E      W                 
----------5--8-7--5--------|------------------------|--5----------------|
--5---------------------6--|--5-------3-1-0---------|-------------------|
---------------------------|------------------------|--2----------------|
---------------------------|------------------------|-------------------|
--0----0--0-------0--0-----|--0----0--2----------0--|--0----------------|
---------------------------|---------------3--3-----|-------------------|


  W                  
--L----------------||
-------------------||
--L----------------||
-------------------||
--L----------------||
-------------------||



Duration Legend
---------------
W - whole
H - half
Q - quarter
E - 8th
S - 16th
Login or Register to remove this ad.

3 comments on UNATCO

Whoa I dont know that I can

Whoa I dont know that I can play this and some of the chords feel a little awkward at tempo but this is very very interesting.

I would love to see if you have anything else from Alexander Brandon or Deus Ex/Unreal/UT99, as Im a huge fan of those soundtracks.

Well done

5

Congrats on your first tab! Way better than my first tab lol. I'm not familiar with this song but it sounds great, looking forward to more of your work ;)

Such a great song

5

This an arrangement I've been praying to show up on this site for years. Deus Ex has such a great OST but it never seems to get much love on this site. A really satisfying arrangement to play too and a really impressive 1st tab to boot :D